  0
SECTION
  2
HEADER
  9
$ACADVER
  1
AC1015
  9
$ACADMAINTVER
 70
    20
  9
$DWGCODEPAGE
  3
ANSI_1252
  9
$INSBASE
 10
0.0
 20
0.0
 30
0.0
  9
$EXTMIN
 10
-0.000000007700903
 20
-0.0000000100690745
 30
0.0
  9
$EXTMAX
 10
2.362000017843139
 20
0.7090000113163431
 30
0.0
  9
$LIMMIN
 10
0.0
 20
0.0
  9
$LIMMAX
 10
420.0
 20
297.0
  9
$ORTHOMODE
 70
     0
  9
$REGENMODE
 70
     1
  9
$FILLMODE
 70
     1
  9
$QTEXTMODE
 70
     0
  9
$MIRRTEXT
 70
     0
  9
$LTSCALE
 40
1.0
  9
$ATTMODE
 70
     1
  9
$TEXTSIZE
 40
2.5
  9
$TRACEWID
 40
1.0
  9
$TEXTSTYLE
  7
Standard
  9
$CLAYER
  8
0
  9
$CELTYPE
  6
ByLayer
  9
$CECOLOR
 62
   256
  9
$CELTSCALE
 40
1.0
  9
$DISPSILH
 70
     0
  9
$DIMSCALE
 40
1.0
  9
$DIMASZ
 40
2.5
  9
$DIMEXO
 40
0.625
  9
$DIMDLI
 40
3.75
  9
$DIMRND
 40
0.0
  9
$DIMDLE
 40
0.0
  9
$DIMEXE
 40
1.25
  9
$DIMTP
 40
0.0
  9
$DIMTM
 40
0.0
  9
$DIMTXT
 40
2.5
  9
$DIMCEN
 40
2.5
  9
$DIMTSZ
 40
0.0
  9
$DIMTOL
 70
     0
  9
$DIMLIM
 70
     0
  9
$DIMTIH
 70
     0
  9
$DIMTOH
 70
     0
  9
$DIMSE1
 70
     0
  9
$DIMSE2
 70
     0
  9
$DIMTAD
 70
     1
  9
$DIMZIN
 70
     8
  9
$DIMBLK
  1

  9
$DIMASO
 70
     1
  9
$DIMSHO
 70
     1
  9
$DIMPOST
  1

  9
$DIMAPOST
  1

  9
$DIMALT
 70
     0
  9
$DIMALTD
 70
     3
  9
$DIMALTF
 40
0.03937007874016
  9
$DIMLFAC
 40
1.0
  9
$DIMTOFL
 70
     1
  9
$DIMTVP
 40
0.0
  9
$DIMTIX
 70
     0
  9
$DIMSOXD
 70
     0
  9
$DIMSAH
 70
     0
  9
$DIMBLK1
  1

  9
$DIMBLK2
  1

  9
$DIMSTYLE
  2
ISO-25
  9
$DIMCLRD
 70
     0
  9
$DIMCLRE
 70
     0
  9
$DIMCLRT
 70
     0
  9
$DIMTFAC
 40
1.0
  9
$DIMGAP
 40
0.625
  9
$DIMJUST
 70
     0
  9
$DIMSD1
 70
     0
  9
$DIMSD2
 70
     0
  9
$DIMTOLJ
 70
     0
  9
$DIMTZIN
 70
     8
  9
$DIMALTZ
 70
     0
  9
$DIMALTTZ
 70
     0
  9
$DIMUPT
 70
     0
  9
$DIMDEC
 70
     2
  9
$DIMTDEC
 70
     2
  9
$DIMALTU
 70
     2
  9
$DIMALTTD
 70
     3
  9
$DIMTXSTY
  7
Standard
  9
$DIMAUNIT
 70
     0
  9
$DIMADEC
 70
     0
  9
$DIMALTRND
 40
0.0
  9
$DIMAZIN
 70
     0
  9
$DIMDSEP
 70
    44
  9
$DIMATFIT
 70
     3
  9
$DIMFRAC
 70
     0
  9
$DIMLDRBLK
  1

  9
$DIMLUNIT
 70
     2
  9
$DIMLWD
 70
    -2
  9
$DIMLWE
 70
    -2
  9
$DIMTMOVE
 70
     0
  9
$LUNITS
 70
     2
  9
$LUPREC
 70
     4
  9
$SKETCHINC
 40
1.0
  9
$FILLETRAD
 40
0.0
  9
$AUNITS
 70
     0
  9
$AUPREC
 70
     0
  9
$MENU
  1
.
  9
$ELEVATION
 40
0.0
  9
$PELEVATION
 40
0.0
  9
$THICKNESS
 40
0.0
  9
$LIMCHECK
 70
     0
  9
$CHAMFERA
 40
0.0
  9
$CHAMFERB
 40
0.0
  9
$CHAMFERC
 40
0.0
  9
$CHAMFERD
 40
0.0
  9
$SKPOLY
 70
     0
  9
$TDCREATE
 40
2458166.469966319
  9
$TDUCREATE
 40
2458166.678299653
  9
$TDUPDATE
 40
2458166.480171134
  9
$TDUUPDATE
 40
2458166.688504468
  9
$TDINDWG
 40
0.0019897338
  9
$TDUSRTIMER
 40
0.0019894792
  9
$USRTIMER
 70
     1
  9
$ANGBASE
 50
0.0
  9
$ANGDIR
 70
     0
  9
$PDMODE
 70
     0
  9
$PDSIZE
 40
0.0
  9
$PLINEWID
 40
0.0
  9
$SPLFRAME
 70
     0
  9
$SPLINETYPE
 70
     6
  9
$SPLINESEGS
 70
     8
  9
$HANDSEED
  5
519
  9
$SURFTAB1
 70
     6
  9
$SURFTAB2
 70
     6
  9
$SURFTYPE
 70
     6
  9
$SURFU
 70
     6
  9
$SURFV
 70
     6
  9
$UCSBASE
  2

  9
$UCSNAME
  2

  9
$UCSORG
 10
0.0
 20
0.0
 30
0.0
  9
$UCSXDIR
 10
1.0
 20
0.0
 30
0.0
  9
$UCSYDIR
 10
0.0
 20
1.0
 30
0.0
  9
$UCSORTHOREF
  2

  9
$UCSORTHOVIEW
 70
     0
  9
$UCSORGTOP
 10
0.0
 20
0.0
 30
0.0
  9
$UCSORGBOTTOM
 10
0.0
 20
0.0
 30
0.0
  9
$UCSORGLEFT
 10
0.0
 20
0.0
 30
0.0
  9
$UCSORGRIGHT
 10
0.0
 20
0.0
 30
0.0
  9
$UCSORGFRONT
 10
0.0
 20
0.0
 30
0.0
  9
$UCSORGBACK
 10
0.0
 20
0.0
 30
0.0
  9
$PUCSBASE
  2

  9
$PUCSNAME
  2

  9
$PUCSORG
 10
0.0
 20
0.0
 30
0.0
  9
$PUCSXDIR
 10
1.0
 20
0.0
 30
0.0
  9
$PUCSYDIR
 10
0.0
 20
1.0
 30
0.0
  9
$PUCSORTHOREF
  2

  9
$PUCSORTHOVIEW
 70
     0
  9
$PUCSORGTOP
 10
0.0
 20
0.0
 30
0.0
  9
$PUCSORGBOTTOM
 10
0.0
 20
0.0
 30
0.0
  9
$PUCSORGLEFT
 10
0.0
 20
0.0
 30
0.0
  9
$PUCSORGRIGHT
 10
0.0
 20
0.0
 30
0.0
  9
$PUCSORGFRONT
 10
0.0
 20
0.0
 30
0.0
  9
$PUCSORGBACK
 10
0.0
 20
0.0
 30
0.0
  9
$USERI1
 70
     0
  9
$USERI2
 70
     0
  9
$USERI3
 70
     0
  9
$USERI4
 70
     0
  9
$USERI5
 70
     0
  9
$USERR1
 40
0.0
  9
$USERR2
 40
0.0
  9
$USERR3
 40
0.0
  9
$USERR4
 40
0.0
  9
$USERR5
 40
0.0
  9
$WORLDVIEW
 70
     1
  9
$SHADEDGE
 70
     3
  9
$SHADEDIF
 70
    70
  9
$TILEMODE
 70
     1
  9
$MAXACTVP
 70
    64
  9
$PINSBASE
 10
0.0
 20
0.0
 30
0.0
  9
$PLIMCHECK
 70
     0
  9
$PEXTMIN
 10
0.0
 20
0.0
 30
0.0
  9
$PEXTMAX
 10
0.0
 20
0.0
 30
0.0
  9
$PLIMMIN
 10
0.0
 20
0.0
  9
$PLIMMAX
 10
12.0
 20
9.0
  9
$UNITMODE
 70
     0
  9
$VISRETAIN
 70
     1
  9
$PLINEGEN
 70
     0
  9
$PSLTSCALE
 70
     1
  9
$TREEDEPTH
 70
  3020
  9
$CMLSTYLE
  2
Standard
  9
$CMLJUST
 70
     0
  9
$CMLSCALE
 40
20.0
  9
$PROXYGRAPHICS
 70
     1
  9
$MEASUREMENT
 70
     1
  9
$CELWEIGHT
370
    -1
  9
$ENDCAPS
280
     0
  9
$JOINSTYLE
280
     0
  9
$LWDISPLAY
290
     0
  9
$INSUNITS
 70
     1
  9
$HYPERLINKBASE
  1

  9
$STYLESHEET
  1

  9
$XEDIT
290
     1
  9
$CEPSNTYPE
380
     0
  9
$PSTYLEMODE
290
     1
  9
$FINGERPRINTGUID
  2
{E3E9843C-4F12-46E4-9102-C17839327532}
  9
$VERSIONGUID
  2
{BCA58192-B352-462B-98E7-13560B4EFD9A}
  9
$EXTNAMES
290
     1
  9
$PSVPSCALE
 40
0.0
  9
$OLESTARTUP
290
     0
  0
ENDSEC
  0
SECTION
  2
CLASSES
  0
CLASS
  1
ACDBDICTIONARYWDFLT
  2
AcDbDictionaryWithDefault
  3
ObjectDBX Classes
 90
        0
280
     0
281
     0
  0
CLASS
  1
ACDBPLACEHOLDER
  2
AcDbPlaceHolder
  3
ObjectDBX Classes
 90
        0
280
     0
281
     0
  0
CLASS
  1
LAYOUT
  2
AcDbLayout
  3
ObjectDBX Classes
 90
        0
280
     0
281
     0
  0
CLASS
  1
DICTIONARYVAR
  2
AcDbDictionaryVar
  3
ObjectDBX Classes
 90
        0
280
     0
281
     0
  0
CLASS
  1
TABLESTYLE
  2
AcDbTableStyle
  3
ObjectDBX Classes
 90
     4095
280
     0
281
     0
  0
CLASS
  1
MATERIAL
  2
AcDbMaterial
  3
ObjectDBX Classes
 90
     1153
280
     0
281
     0
  0
CLASS
  1
VISUALSTYLE
  2
AcDbVisualStyle
  3
ObjectDBX Classes
 90
     4095
280
     0
281
     0
  0
CLASS
  1
SCALE
  2
AcDbScale
  3
ObjectDBX Classes
 90
     1153
280
     0
281
     0
  0
CLASS
  1
MLEADERSTYLE
  2
AcDbMLeaderStyle
  3
ACDB_MLEADERSTYLE_CLASS
 90
     4095
280
     0
281
     0
  0
CLASS
  1
CELLSTYLEMAP
  2
AcDbCellStyleMap
  3
ObjectDBX Classes
 90
     1152
280
     0
281
     0
  0
CLASS
  1
EXACXREFPANELOBJECT
  2
ExAcXREFPanelObject
  3
EXAC_ESW
 90
    33793
280
     0
281
     0
  0
CLASS
  1
NPOCOLLECTION
  2
AcDbImpNonPersistentObjectsCollection
  3
ObjectDBX Classes
 90
    33921
280
     0
281
     0
  0
CLASS
  1
LAYER_INDEX
  2
AcDbLayerIndex
  3
ObjectDBX Classes
 90
    32768
280
     0
281
     0
  0
CLASS
  1
SPATIAL_INDEX
  2
AcDbSpatialIndex
  3
ObjectDBX Classes
 90
    32768
280
     0
281
     0
  0
CLASS
  1
IDBUFFER
  2
AcDbIdBuffer
  3
ObjectDBX Classes
 90
    32768
280
     0
281
     0
  0
CLASS
  1
ACDBSECTIONVIEWSTYLE
  2
AcDbSectionViewStyle
  3
ObjectDBX Classes
 90
     1025
280
     0
281
     0
  0
CLASS
  1
ACDBDETAILVIEWSTYLE
  2
AcDbDetailViewStyle
  3
ObjectDBX Classes
 90
     1025
280
     0
281
     0
  0
CLASS
  1
SORTENTSTABLE
  2
AcDbSortentsTable
  3
ObjectDBX Classes
 90
        0
280
     0
281
     0
  0
ENDSEC
  0
SECTION
  2
TABLES
  0
TABLE
  2
VPORT
  5
8
330
0
100
AcDbSymbolTable
 70
     1
  0
VPORT
  5
EA
330
8
100
AcDbSymbolTableRecord
100
AcDbViewportTableRecord
  2
*Active
 70
     0
 10
0.0
 20
0.0
 11
1.0
 21
1.0
 12
1.16871995218662
 22
0.0769824346295147
 13
0.0
 23
0.0
 14
10.0
 24
10.0
 15
10.0
 25
10.0
 16
0.0
 26
0.0
 36
1.0
 17
0.0
 27
0.0
 37
0.0
 40
2.62294131059586
 41
1.473039215686274
 42
50.0
 43
0.0
 44
0.0
 50
0.0
 51
0.0
 71
     0
 72
  1000
 73
     1
 74
     3
 75
     0
 76
     0
 77
     0
 78
     0
281
     0
 65
     1
110
0.0
120
0.0
130
0.0
111
1.0
121
0.0
131
0.0
112
0.0
122
1.0
132
0.0
 79
     0
146
0.0
1001
ACAD_NAV_VCDISPLAY
1070
     3
  0
ENDTAB
  0
TABLE
  2
LTYPE
  5
5
330
0
100
AcDbSymbolTable
 70
     1
  0
LTYPE
  5
14
330
5
100
AcDbSymbolTableRecord
100
AcDbLinetypeTableRecord
  2
ByBlock
 70
     0
  3

 72
    65
 73
     0
 40
0.0
  0
LTYPE
  5
15
330
5
100
AcDbSymbolTableRecord
100
AcDbLinetypeTableRecord
  2
ByLayer
 70
     0
  3

 72
    65
 73
     0
 40
0.0
  0
LTYPE
  5
16
330
5
100
AcDbSymbolTableRecord
100
AcDbLinetypeTableRecord
  2
Continuous
 70
     0
  3
Solid line
 72
    65
 73
     0
 40
0.0
  0
ENDTAB
  0
TABLE
  2
LAYER
  5
2
102
{ACAD_XDICTIONARY
360
1FF
102
}
330
0
100
AcDbSymbolTable
 70
    12
  0
LAYER
  5
10
102
{ACAD_XDICTIONARY
360
13C
102
}
330
2
100
AcDbSymbolTableRecord
100
AcDbLayerTableRecord
  2
0
 70
     0
 62
     7
  6
Continuous
370
    -3
390
F
  0
LAYER
  5
231
102
{ACAD_XDICTIONARY
360
232
102
}
330
2
100
AcDbSymbolTableRecord
100
AcDbLayerTableRecord
  2
L01
 70
     0
 62
    80
  6
Continuous
370
    -3
390
F
  0
LAYER
  5
233
102
{ACAD_XDICTIONARY
360
234
102
}
330
2
100
AcDbSymbolTableRecord
100
AcDbLayerTableRecord
  2
OUTLINE
 70
     0
 62
     7
  6
Continuous
370
    -3
390
F
  0
LAYER
  5
235
102
{ACAD_XDICTIONARY
360
236
102
}
330
2
100
AcDbSymbolTableRecord
100
AcDbLayerTableRecord
  2
FAB
 70
     0
 62
     7
  6
Continuous
370
    -3
390
F
  0
LAYER
  5
237
102
{ACAD_XDICTIONARY
360
238
102
}
330
2
100
AcDbSymbolTableRecord
100
AcDbLayerTableRecord
  2
PLATED
 70
     0
 62
     8
  6
Continuous
370
    -3
390
F
  0
LAYER
  5
239
102
{ACAD_XDICTIONARY
360
23A
102
}
330
2
100
AcDbSymbolTableRecord
100
AcDbLayerTableRecord
  2
L04
 70
     0
 62
   172
  6
Continuous
370
    -3
390
F
  0
LAYER
  5
23B
330
2
100
AcDbSymbolTableRecord
100
AcDbLayerTableRecord
  2
NON-PLATED
 70
     0
 62
     7
  6
Continuous
370
    -3
390
F
  0
LAYER
  5
23C
102
{ACAD_XDICTIONARY
360
23D
102
}
330
2
100
AcDbSymbolTableRecord
100
AcDbLayerTableRecord
  2
SSB-WHITE
 70
     0
 62
     8
  6
Continuous
370
    -3
390
F
  0
LAYER
  5
23E
330
2
100
AcDbSymbolTableRecord
100
AcDbLayerTableRecord
  2
SST-BLUE
 70
     0
 62
   174
  6
Continuous
370
    -3
390
F
1001
ACAECLAYERSTANDARD
1000

1000

  0
LAYER
  5
23F
330
2
100
AcDbSymbolTableRecord
100
AcDbLayerTableRecord
  2
L02
 70
     0
 62
   172
  6
Continuous
370
    -3
390
F
1001
ACAECLAYERSTANDARD
1000

1000

1001
AcCmTransparency
1071
        0
  0
LAYER
  5
240
330
2
100
AcDbSymbolTableRecord
100
AcDbLayerTableRecord
  2
L03
 70
     0
 62
   172
  6
Continuous
370
    -3
390
F
1001
ACAECLAYERSTANDARD
1000

1000

1001
AcCmTransparency
1071
        0
  0
LAYER
  5
241
330
2
100
AcDbSymbolTableRecord
100
AcDbLayerTableRecord
  2
SSB-BLUE
 70
     0
 62
   140
  6
Continuous
370
    -3
390
F
1001
ACAECLAYERSTANDARD
1000

1000

1001
AcCmTransparency
1071
        0
  0
ENDTAB
  0
TABLE
  2
STYLE
  5
3
330
0
100
AcDbSymbolTable
 70
     2
  0
STYLE
  5
11
330
3
100
AcDbSymbolTableRecord
100
AcDbTextStyleTableRecord
  2
Standard
 70
     0
 40
0.0
 41
1.0
 50
0.0
 71
     0
 42
2.5
  3
arial.ttf
  4

1001
ACAD
1000
Arial
1071
       34
  0
STYLE
  5
132
330
3
100
AcDbSymbolTableRecord
100
AcDbTextStyleTableRecord
  2
Annotative
 70
     0
 40
0.0
 41
1.0
 50
0.0
 71
     0
 42
2.5
  3
arial.ttf
  4

1001
AcadAnnotative
1000
AnnotativeData
1002
{
1070
     1
1070
     1
1002
}
1001
ACAD
1000
Arial
1071
       34
  0
ENDTAB
  0
TABLE
  2
VIEW
  5
6
330
0
100
AcDbSymbolTable
 70
     0
  0
ENDTAB
  0
TABLE
  2
UCS
  5
7
330
0
100
AcDbSymbolTable
 70
     0
  0
ENDTAB
  0
TABLE
  2
APPID
  5
9
330
0
100
AcDbSymbolTable
 70
    10
  0
APPID
  5
12
330
9
100
AcDbSymbolTableRecord
100
AcDbRegAppTableRecord
  2
ACAD
 70
     0
  0
APPID
  5
9E
330
9
100
AcDbSymbolTableRecord
100
AcDbRegAppTableRecord
  2
ACAD_PSEXT
 70
     0
  0
APPID
  5
133
330
9
100
AcDbSymbolTableRecord
100
AcDbRegAppTableRecord
  2
AcadAnnoPO
 70
     0
  0
APPID
  5
134
330
9
100
AcDbSymbolTableRecord
100
AcDbRegAppTableRecord
  2
AcadAnnotative
 70
     0
  0
APPID
  5
135
330
9
100
AcDbSymbolTableRecord
100
AcDbRegAppTableRecord
  2
ACAD_DSTYLE_DIMJAG
 70
     0
  0
APPID
  5
136
330
9
100
AcDbSymbolTableRecord
100
AcDbRegAppTableRecord
  2
ACAD_DSTYLE_DIMTALN
 70
     0
  0
APPID
  5
165
330
9
100
AcDbSymbolTableRecord
100
AcDbRegAppTableRecord
  2
ACAD_MLEADERVER
 70
     0
  0
APPID
  5
217
330
9
100
AcDbSymbolTableRecord
100
AcDbRegAppTableRecord
  2
ACAD_NAV_VCDISPLAY
 70
     0
  0
APPID
  5
242
330
9
100
AcDbSymbolTableRecord
100
AcDbRegAppTableRecord
  2
ACAECLAYERSTANDARD
 70
     0
  0
APPID
  5
243
330
9
100
AcDbSymbolTableRecord
100
AcDbRegAppTableRecord
  2
AcCmTransparency
 70
     0
  0
ENDTAB
  0
TABLE
  2
DIMSTYLE
  5
A
330
0
100
AcDbSymbolTable
 70
     3
100
AcDbDimStyleTable
 71
     2
340
27
340
137
  0
DIMSTYLE
105
1B0
330
A
100
AcDbSymbolTableRecord
100
AcDbDimStyleTableRecord
  2
Standard
 70
     0
340
11
  0
DIMSTYLE
105
137
330
A
100
AcDbSymbolTableRecord
100
AcDbDimStyleTableRecord
  2
Annotative
 70
     0
 40
0.0
 41
2.5
 42
0.625
 43
3.75
 44
1.25
 73
     0
 74
     0
 77
     1
 78
     8
140
2.5
141
2.5
143
0.03937007874016
147
0.625
171
     3
172
     1
271
     2
272
     2
274
     3
278
    44
283
     0
284
     8
340
11
1001
AcadAnnotative
1000
AnnotativeData
1002
{
1070
     1
1070
     1
1002
}
1001
ACAD_DSTYLE_DIMJAG
1070
   388
1040
1.5
1001
ACAD_DSTYLE_DIMTALN
1070
   392
1070
     0
  0
DIMSTYLE
105
27
330
A
100
AcDbSymbolTableRecord
100
AcDbDimStyleTableRecord
  2
ISO-25
 70
     0
 41
2.5
 42
0.625
 43
3.75
 44
1.25
 73
     0
 74
     0
 77
     1
 78
     8
140
2.5
141
2.5
143
0.03937007874016
147
0.625
171
     3
172
     1
271
     2
272
     2
274
     3
278
    44
283
     0
284
     8
340
11
  0
ENDTAB
  0
TABLE
  2
BLOCK_RECORD
  5
1
330
0
100
AcDbSymbolTable
 70
     3
  0
BLOCK_RECORD
  5
1F
102
{ACAD_XDICTIONARY
360
1CE
102
}
330
1
100
AcDbSymbolTableRecord
100
AcDbBlockTableRecord
  2
*Model_Space
340
22
  0
BLOCK_RECORD
  5
D2
330
1
100
AcDbSymbolTableRecord
100
AcDbBlockTableRecord
  2
*Paper_Space
340
D3
  0
BLOCK_RECORD
  5
D6
330
1
100
AcDbSymbolTableRecord
100
AcDbBlockTableRecord
  2
*Paper_Space0
340
D7
  0
ENDTAB
  0
ENDSEC
  0
SECTION
  2
BLOCKS
  0
BLOCK
  5
20
330
1F
100
AcDbEntity
  8
0
100
AcDbBlockBegin
  2
*Model_Space
 70
     0
 10
0.0
 20
0.0
 30
0.0
  3
*Model_Space
  1

  0
ENDBLK
  5
21
330
1F
100
AcDbEntity
  8
0
100
AcDbBlockEnd
  0
BLOCK
  5
D4
330
D2
100
AcDbEntity
 67
     1
  8
0
100
AcDbBlockBegin
  2
*Paper_Space
 70
     0
 10
0.0
 20
0.0
 30
0.0
  3
*Paper_Space
  1

  0
ENDBLK
  5
D5
330
D2
100
AcDbEntity
 67
     1
  8
0
100
AcDbBlockEnd
  0
BLOCK
  5
D8
330
D6
100
AcDbEntity
 67
     1
  8
0
100
AcDbBlockBegin
  2
*Paper_Space0
 70
     0
 10
0.0
 20
0.0
 30
0.0
  3
*Paper_Space0
  1

  0
ENDBLK
  5
D9
330
D6
100
AcDbEntity
 67
     1
  8
0
100
AcDbBlockEnd
  0
ENDSEC
  0
SECTION
  2
ENTITIES
  0
LWPOLYLINE
  5
494
330
1F
100
AcDbEntity
  8
OUTLINE
370
     0
100
AcDbPolyline
 90
        4
 70
     1
 43
0.0
 10
-0.0000000077008737
 20
0.7089999951726594
 10
-0.0000000077008737
 20
-0.0000000048273421
 10
2.361999992299125
 20
-0.0000000048273421
 10
2.361999992299125
 20
0.7089999951726594
  0
CIRCLE
  5
495
330
1F
100
AcDbEntity
  8
PLATED
370
     0
100
AcDbCircle
 10
2.346999992299135
 20
0.3974999951726659
 30
0.0
 40
0.006
  0
CIRCLE
  5
496
330
1F
100
AcDbEntity
  8
PLATED
370
     0
100
AcDbCircle
 10
0.0109999922991522
 20
0.3754999951726186
 30
0.0
 40
0.004
  0
CIRCLE
  5
497
330
1F
100
AcDbEntity
  8
PLATED
370
     0
100
AcDbCircle
 10
2.346999992299135
 20
0.422499995172645
 30
0.0
 40
0.006
  0
CIRCLE
  5
498
330
1F
100
AcDbEntity
  8
PLATED
370
     0
100
AcDbCircle
 10
0.0109999922991522
 20
0.3334999951727031
 30
0.0
 40
0.004
  0
CIRCLE
  5
499
330
1F
100
AcDbEntity
  8
PLATED
370
     0
100
AcDbCircle
 10
0.0149999922991135
 20
0.3114999951726549
 30
0.0
 40
0.006
  0
CIRCLE
  5
49A
330
1F
100
AcDbEntity
  8
PLATED
370
     0
100
AcDbCircle
 10
2.350999992299099
 20
0.3754999951726186
 30
0.0
 40
0.004
  0
CIRCLE
  5
49B
330
1F
100
AcDbEntity
  8
PLATED
370
     0
100
AcDbCircle
 10
0.0149999922991135
 20
0.2864999951726776
 30
0.0
 40
0.006
  0
CIRCLE
  5
49C
330
1F
100
AcDbEntity
  8
PLATED
370
     0
100
AcDbCircle
 10
0.0149999922991135
 20
0.422499995172645
 30
0.0
 40
0.006
  0
CIRCLE
  5
49D
330
1F
100
AcDbEntity
  8
PLATED
370
     0
100
AcDbCircle
 10
2.346999992299135
 20
0.2864999951726776
 30
0.0
 40
0.006
  0
CIRCLE
  5
49E
330
1F
100
AcDbEntity
  8
PLATED
370
     0
100
AcDbCircle
 10
0.0149999922991135
 20
0.3974999951726659
 30
0.0
 40
0.006
  0
CIRCLE
  5
49F
330
1F
100
AcDbEntity
  8
PLATED
370
     0
100
AcDbCircle
 10
2.350999992299099
 20
0.3334999951727031
 30
0.0
 40
0.004
  0
CIRCLE
  5
4A0
330
1F
100
AcDbEntity
  8
PLATED
370
     0
100
AcDbCircle
 10
2.346999992299135
 20
0.3114999951726549
 30
0.0
 40
0.006
  0
LWPOLYLINE
  5
4A1
330
1F
100
AcDbEntity
  8
L02
370
     0
100
AcDbPolyline
 90
        4
 70
     1
 43
0.0
 10
-0.0000000077008737
 20
0.693999995172673
 10
-0.0000000077008737
 20
0.0149999951726443
 10
2.361999992299125
 20
0.0149999951726443
 10
2.361999992299125
 20
0.693999995172673
  0
LWPOLYLINE
  5
4A2
330
1F
100
AcDbEntity
  8
L01
  6
Continuous
370
     0
100
AcDbPolyline
 90
       12
 70
     1
 43
0.0
 10
-0.0000000077008737
 20
0.3599999951726449
 10
-0.0000000077008737
 20
0.3599999951726431
 10
-0.0000000077008737
 20
0.348999995172675
 10
-0.0000000077008737
 20
0.3489999951726777
 10
0.0499999922991386
 20
0.3458499951726717
 10
2.31199999229911
 20
0.3458499951726717
 10
2.361999992299125
 20
0.3489999951726777
 10
2.361999992299125
 20
0.348999995172675
 10
2.361999992299125
 20
0.3599999951726431
 10
2.361999992299125
 20
0.3599999951726449
 10
2.31199999229911
 20
0.3631499951726482
 10
0.0499999922991386
 20
0.3631499951726482
  0
TEXT
  5
4A3
330
1F
100
AcDbEntity
  8
SST-BLUE
370
     0
100
AcDbText
 10
0.9103681022886027
 20
0.2032039026168068
 30
0.0
 40
0.05
  1
020-020-2.362Fn
 72
     1
 11
1.178325128209475
 21
0.2282039026168068
 31
0.0
100
AcDbText
 73
     2
1001
ACAD
1000
ACAD_MTEXT_DEFINED_HEIGHT_BEGIN
1070
    46
1040
0.0612507874
1000
ACAD_MTEXT_DEFINED_HEIGHT_END
  0
TEXT
  5
4A4
330
1F
100
AcDbEntity
  8
SST-BLUE
370
     0
100
AcDbText
 10
1.02955737895007
 20
0.0326004780823718
 30
0.0
 40
0.05
  1
8 RO4003
 72
     1
 11
1.188766110191544
 21
0.0576004780823718
 31
0.0
100
AcDbText
 73
     2
1001
ACAD
1000
ACAD_MTEXT_DEFINED_HEIGHT_BEGIN
1070
    46
1040
0.0613298429
1000
ACAD_MTEXT_DEFINED_HEIGHT_END
  0
TEXT
  5
4A5
330
1F
100
AcDbEntity
  8
SST-BLUE
370
     0
100
AcDbText
 10
0.9794079202746111
 20
0.1167724555997939
 30
0.0
 40
0.05
  1
W17.3 11-50
 72
     1
 11
1.179373813862605
 21
0.1417724555997939
 31
0.0
100
AcDbText
 73
     2
1001
ACAD
1000
ACAD_MTEXT_DEFINED_HEIGHT_BEGIN
1070
    46
1040
0.0613298429
1000
ACAD_MTEXT_DEFINED_HEIGHT_END
  0
TEXT
  5
4A6
330
1F
100
AcDbEntity
  8
SST-BLUE
370
     0
100
AcDbText
 10
0.8329124406242097
 20
0.4562572064188263
 30
0.0
 40
0.05
  1
6cm TRACE LENGTH
 72
     1
 11
1.178325128209475
 21
0.4812572064188263
 31
0.0
100
AcDbText
 73
     2
1001
ACAD
1000
ACAD_MTEXT_DEFINED_HEIGHT_BEGIN
1070
    46
1040
0.0612507874
1000
ACAD_MTEXT_DEFINED_HEIGHT_END
  0
TEXT
  5
4A7
330
1F
100
AcDbEntity
  8
SST-BLUE
370
     0
100
AcDbText
 10
0.8085859557452796
 20
0.542688653435619
 30
0.0
 40
0.05
  1
Width=3x - Length=2cm
 72
     1
 11
1.179373813862605
 21
0.567688653435619
 31
0.0
100
AcDbText
 73
     2
1001
ACAD
1000
ACAD_MTEXT_DEFINED_HEIGHT_BEGIN
1070
    46
1040
0.0613298429
1000
ACAD_MTEXT_DEFINED_HEIGHT_END
  0
TEXT
  5
4A8
330
1F
100
AcDbEntity
  8
SST-BLUE
370
     0
100
AcDbText
 10
0.2484392900018305
 20
0.175034869301513
 30
0.0
 40
0.05
  1
Port 1
 72
     1
 11
0.3416180076007391
 21
0.200034869301513
 31
0.0
100
AcDbText
 73
     2
1001
ACAD
1000
ACAD_MTEXT_DEFINED_HEIGHT_BEGIN
1070
    46
1040
0.0613298429
1000
ACAD_MTEXT_DEFINED_HEIGHT_END
  0
TEXT
  5
4A9
330
1F
100
AcDbEntity
  8
SST-BLUE
370
     0
100
AcDbText
 10
1.926895081201862
 20
0.175034869301513
 30
0.0
 40
0.05
  1
Port 2
 72
     1
 11
2.020073798800771
 21
0.200034869301513
 31
0.0
100
AcDbText
 73
     2
1001
ACAD
1000
ACAD_MTEXT_DEFINED_HEIGHT_BEGIN
1070
    46
1040
0.0613298429
1000
ACAD_MTEXT_DEFINED_HEIGHT_END
  0
TEXT
  5
4AA
330
1F
100
AcDbEntity
  8
SST-BLUE
370
     0
100
AcDbText
 10
0.2553093918801127
 20
0.4844031837993871
 30
0.0
 40
0.05
  1
J3
 72
     1
 11
0.2921954764640144
 21
0.5094031837993871
 31
0.0
100
AcDbText
 73
     2
1001
ACAD
1000
ACAD_MTEXT_DEFINED_HEIGHT_BEGIN
1070
    46
1040
0.0613298429
1000
ACAD_MTEXT_DEFINED_HEIGHT_END
  0
TEXT
  5
4AB
330
1F
100
AcDbEntity
  8
SST-BLUE
370
     0
100
AcDbText
 10
2.040319378529873
 20
0.4844031837993871
 30
0.0
 40
0.05
  1
J4
 72
     1
 11
2.077205463113775
 21
0.5094031837993871
 31
0.0
100
AcDbText
 73
     2
1001
ACAD
1000
ACAD_MTEXT_DEFINED_HEIGHT_BEGIN
1070
    46
1040
0.0613298429
1000
ACAD_MTEXT_DEFINED_HEIGHT_END
  0
TEXT
  5
4AC
330
1F
100
AcDbEntity
  8
SST-BLUE
370
     0
100
AcDbText
 10
0.8490593374559917
 20
0.6263995122629499
 30
0.0
 40
0.05
  1
Beatty Standard DUT
 72
     1
 11
1.180999992299102
 21
0.6513995122629499
 31
0.0
100
AcDbText
 73
     2
1001
ACAD
1000
ACAD_MTEXT_DEFINED_HEIGHT_BEGIN
1070
    46
1040
0.0613298429
1000
ACAD_MTEXT_DEFINED_HEIGHT_END
  0
LWPOLYLINE
  5
4AD
330
1F
100
AcDbEntity
  8
L01
370
     0
100
AcDbPolyline
 90
        4
 70
     1
 43
0.0
 10
0.7874999680531137
 20
0.3285500153800687
 10
1.574499968053112
 20
0.3285500153800687
 10
1.574499968053112
 20
0.380450015380072
 10
0.7874999680531137
 20
0.380450015380072
  0
LWPOLYLINE
  5
4AE
330
1F
100
AcDbEntity
  8
L04
370
     0
100
AcDbPolyline
 90
        4
 70
     1
 43
0.0
 10
-0.0000000077008737
 20
0.693999995172673
 10
-0.0000000077008737
 20
0.0149999951726443
 10
2.361999992299125
 20
0.0149999951726443
 10
2.361999992299125
 20
0.693999995172673
  0
LWPOLYLINE
  5
4AF
330
1F
100
AcDbEntity
  8
L03
370
     0
100
AcDbPolyline
 90
        4
 70
     1
 43
0.0
 10
0.0299999851227639
 20
0.6939999660307504
 10
2.331999985122827
 20
0.6939999660307504
 10
2.331999985122827
 20
0.0149999660307234
 10
0.0299999851227639
 20
0.0149999660307234
  0
TEXT
  5
4B0
330
1F
100
AcDbEntity
  8
SST-BLUE
370
     0
100
AcDbText
 10
1.568424695502973
 20
0.0359920334609857
 30
0.0
 40
0.05
  1
907-000-10141
 72
     1
 11
1.805344886498881
 21
0.0609920334609857
 31
0.0
100
AcDbText
 73
     2
1001
ACAD
1000
ACAD_MTEXT_DEFINED_HEIGHT_BEGIN
1070
    46
1040
0.0613298429
1000
ACAD_MTEXT_DEFINED_HEIGHT_END
  0
LINE
  5
4B1
330
1F
100
AcDbEntity
  8
FAB
370
     0
100
AcDbLine
 10
-0.0000000077008737
 20
0.7089999951726594
 30
0.0
 11
-0.0000000077008737
 21
-0.0000000048273421
 31
0.0
  0
LINE
  5
4B2
330
1F
100
AcDbEntity
  8
FAB
370
     0
100
AcDbLine
 10
-0.0000000077008737
 20
-0.0000000048273421
 30
0.0
 11
2.361999992299125
 21
-0.0000000048273421
 31
0.0
  0
LINE
  5
4B3
330
1F
100
AcDbEntity
  8
FAB
370
     0
100
AcDbLine
 10
2.361999992299125
 20
-0.0000000048273421
 30
0.0
 11
2.361999992299125
 21
0.7089999951726594
 31
0.0
  0
LINE
  5
4B4
330
1F
100
AcDbEntity
  8
FAB
370
     0
100
AcDbLine
 10
2.361999992299125
 20
0.7089999951726594
 30
0.0
 11
-0.0000000077008737
 21
0.7089999951726594
 31
0.0
  0
CIRCLE
  5
4B5
330
1F
100
AcDbEntity
  8
NON-PLATED
370
     0
100
AcDbCircle
 10
0.1099913496680536
 20
0.5419999894724033
 30
0.0
 40
0.04
  0
CIRCLE
  5
4B6
330
1F
100
AcDbEntity
  8
NON-PLATED
370
     0
100
AcDbCircle
 10
0.1099913496680536
 20
0.167000000872692
 30
0.0
 40
0.04
  0
CIRCLE
  5
4B7
330
1F
100
AcDbEntity
  8
NON-PLATED
370
     0
100
AcDbCircle
 10
2.252008434642428
 20
0.5419999894724033
 30
0.0
 40
0.04
  0
CIRCLE
  5
4B8
330
1F
100
AcDbEntity
  8
NON-PLATED
370
     0
100
AcDbCircle
 10
2.252008434642428
 20
0.167000000872692
 30
0.0
 40
0.04
  0
LWPOLYLINE
  5
4B9
330
1F
100
AcDbEntity
  8
SSB-WHITE
370
     0
100
AcDbPolyline
 90
        4
 70
     1
 43
0.0
 10
0.4934999390580233
 20
0.0149999951725315
 10
1.868499939058022
 20
0.0149999951725315
 10
1.868499939058022
 20
0.3149999951725313
 10
0.4934999390580233
 20
0.3149999951725313
  0
LWPOLYLINE
  5
4BA
330
1F
100
AcDbEntity
  8
SSB-BLUE
370
     0
100
AcDbPolyline
 90
      107
 70
     1
 43
0.0
 10
0.3140176976614795
 20
0.2044704438848823
 10
0.3140176976614795
 20
0.2164513397906038
 10
0.3140776628136761
 20
0.2217425624546028
 10
0.3167900491653626
 20
0.2230786341266668
 10
0.3215847799896476
 20
0.2254404304466639
 10
0.325754807565513
 20
0.2274945089666769
 10
0.3272682181654956
 20
0.2282360771185665
 10
0.3285418221336114
 20
0.2287615706066033
 10
0.3296729984136846
 20
0.2291020012946836
 10
0.3306296163096212
 20
0.2292694183107535
 10
0.331746142317475
 20
0.2292322369586301
 10
0.3330731809655427
 20
0.2286772700787125
 10
0.3341572283974479
 20
0.2275074862947415
 10
0.3349641446374303
 20
0.2256827221586697
 10
0.3353541786453595
 20
0.2247979856307243
 10
0.3360859459416101
 20
0.2247979856307243
 10
0.3369697180775031
 20
0.2247979856307243
 10
0.3375114792455349
 20
0.2247979856307243
 10
0.3375357640776615
 20
0.2280103061186782
 10
0.3375357640776615
 20
0.2383925254465735
 10
0.3375357640776615
 20
0.2497769886145704
 10
0.3375357640776615
 20
0.2556491100386111
 10
0.3371957767414679
 20
0.2556856811186599
 10
0.3363646215335159
 20
0.2556856811186599
 10
0.3355334663255656
 20
0.2556856811186599
 10
0.3351770712215805
 20
0.255579833246637
 10
0.33488807716562
 20
0.2542807547906642
 10
0.3344557290936105
 20
0.2531315183905818
 10
0.3338760103176126
 20
0.2521421654546403
 10
0.3331538725895395
 20
0.2513095425985679
 10
0.3321950981494277
 20
0.2504709764547037
 10
0.3308918407656316
 20
0.2496052223187393
 10
0.3292340596536416
 20
0.2487403954466512
 10
0.3260642036135186
 20
0.2472589389507016
 10
0.3072529270776751
 20
0.2380697857826171
 10
0.2804549035655261
 20
0.2249791724546348
 10
0.2605026629974105
 20
0.2152326677905929
 10
0.256809748941528
 20
0.2134438529186937
 10
0.2552815648295681
 20
0.2128286419586569
 10
0.2539387527094563
 20
0.2124343326146416
 10
0.2527863326616657
 20
0.2122589165426767
 10
0.2513799311975937
 20
0.2123672797586282
 10
0.2500313745336511
 20
0.2129746579586769
 10
0.2489404849413912
 20
0.2141298098786306
 10
0.2480952129816112
 20
0.2158688832146502
 10
0.247713681285644
 20
0.2161905639505974
 10
0.2469524209416569
 20
0.2161905639505974
 10
0.2461554762215696
 20
0.2161905639505974
 10
0.245786740581492
 20
0.2161905639505974
 10
0.245786740581492
 20
0.2106228166226778
 10
0.245786740581492
 20
0.1985892982946664
 10
0.245786740581492
 20
0.1870945942946367
 10
0.2457970166134986
 20
0.1829796262946344
 10
0.2462618248534412
 20
0.1829796262946344
 10
0.2470834737333289
 20
0.1829796262946344
 10
0.2477980704213429
 20
0.1829796262946344
 10
0.2481888148534956
 20
0.183603689630587
 10
0.2489715354936122
 20
0.1852842401906578
 10
0.2499674341894966
 20
0.1864238139505989
 10
0.2512066332936085
 20
0.1870103614706657
 10
0.2524494409896532
 20
0.187074677462606
 10
0.2535145035333546
 20
0.1869072407906769
 10
0.2546656094376365
 20
0.1865581396225995
 10
0.2559087831094287
 20
0.18601934120659
 10
0.2612454607415628
 20
0.1833245837905828
 10
0.2832520253735069
 20
0.1722350361265672
 10
0.3098298608134655
 20
0.1588419341186373
 10
0.3261223373255708
 20
0.1506318294626432
 10
0.3285796274853476
 20
0.1493893527986083
 10
0.3304312648056236
 20
0.1483079080705991
 10
0.3318585549815589
 20
0.1472982947905743
 10
0.3328835879254299
 20
0.1463705540546503
 10
0.3337919238215505
 20
0.1453816691187271
 10
0.3344698461575737
 20
0.1442652710305818
 10
0.3349315013253724
 20
0.1429943961266158
 10
0.3351962523573402
 20
0.1416563841266427
 10
0.3356415487414726
 20
0.1416563841266427
 10
0.3365048589816739
 20
0.1416563841266427
 10
0.3372921666454536
 20
0.1416563841266427
 10
0.3375357640776615
 20
0.1420129564465942
 10
0.3375357640776615
 20
0.1499675961267464
 10
0.3375357640776615
 20
0.1629439600466309
 10
0.3375357640776615
 20
0.1736884466306208
 10
0.3374701801174407
 20
0.1760479856307242
 10
0.3368436469895695
 20
0.1760479856307242
 10
0.3359511051574131
 20
0.1760479856307242
 10
0.3352865707416877
 20
0.1760479856307242
 10
0.3349455918696211
 20
0.1748717375186217
 10
0.3341892289895565
 20
0.1731528449666415
 10
0.3330497644295285
 20
0.1720425904705802
 10
0.3315292059095869
 20
0.1715449897826762
 10
0.3304561302694271
 20
0.1715662538307168
 10
0.3295085391573735
 20
0.1718059777827428
 10
0.3283690883254104
 20
0.1722211867586818
 10
0.3270658924056011
 20
0.1727877831267284
 10
0.3252623558134937
 20
0.1736749257986974
 10
0.3208200218136206
 20
0.1758763197986468
 10
0.3161694533974835
 20
0.1781809043665934
 10
0.3140176976614795
 20
0.1792472046146143
 10
0.3140176976614795
 20
0.1792472046146143
 10
0.3140176976614795
 20
0.1863665142146633
 10
0.3140176976614795
 20
0.2044704438848823
 10
0.301411252485682
 20
0.2044704438848823
 10
0.301411252485682
 20
0.1852266967826761
 10
0.2688477759813521
 20
0.2003848997907314
 10
0.301411252485682
 20
0.2156383177106367
 10
0.301411252485682
 20
0.2044704438848823
  0
LWPOLYLINE
  5
4BB
330
1F
100
AcDbEntity
  8
SSB-BLUE
370
     0
100
AcDbPolyline
 90
      107
 70
     1
 43
0.0
 10
0.4207916234135026
 20
0.2059990418048088
 10
0.4285992405814936
 20
0.2059990418048088
 10
0.4285992405814936
 20
0.2137871692946165
 10
0.428636963565527
 20
0.2171227759587317
 10
0.4303432719093614
 20
0.2179437356306018
 10
0.433359541581325
 20
0.2193949599506109
 10
0.435982823229665
 20
0.2206571047827133
 10
0.436934457237598
 20
0.2211375286226289
 10
0.4377229055735157
 20
0.2215222108946868
 10
0.4384106353176094
 20
0.2217681732867138
 10
0.4389855970296184
 20
0.2218874649266613
 10
0.4396787543255654
 20
0.2218608410306917
 10
0.4404997458213842
 20
0.2214797096306418
 10
0.44116255331764
 20
0.220711614614606
 10
0.4416752095655872
 20
0.2195665964546087
 10
0.4419229459894414
 20
0.2190279662066299
 10
0.4423275001656118
 20
0.2190279662066299
 10
0.4428160899816112
 20
0.2190279662066299
 10
0.4431155999973822
 20
0.2190279662066299
 10
0.4431290259815662
 20
0.2210559662066522
 10
0.4431290259815662
 20
0.2276104622066342
 10
0.4431290259815662
 20
0.2347976942066463
 10
0.4431290259815662
 20
0.2385048782066512
 10
0.4429410653254982
 20
0.2385279662067017
 10
0.442481564829401
 20
0.2385279662067017
 10
0.4420220646454407
 20
0.2385279662067017
 10
0.4418202096933915
 20
0.238463001566668
 10
0.4416046476455131
 20
0.2376538117826819
 10
0.4413186441094928
 20
0.2369311286786324
 10
0.4409541666455024
 20
0.2363250755426858
 10
0.4405136064216518
 20
0.2358436264706576
 10
0.4399378069896312
 20
0.2353403121266284
 10
0.4391383253976305
 20
0.2348141353587216
 10
0.4381091372376487
 20
0.2342590714466253
 10
0.4361310394535814
 20
0.2332921400787233
 10
0.4244000971656572
 20
0.2274801535347137
 10
0.4076885216615356
 20
0.2192005583667003
 10
0.3952460605656816
 20
0.2130360561266844
 10
0.3929203052374532
 20
0.2118998226386815
 10
0.3919336039893499
 20
0.2115128490386979
 10
0.391081297365548
 20
0.2112726280707129
 10
0.3903754344934649
 20
0.2111691189507505
 10
0.3894864238776385
 20
0.2112353340867505
 10
0.3886041764855106
 20
0.2116094604626433
 10
0.3878832025175471
 20
0.2123314680867434
 10
0.387327518661337
 20
0.2134334879667392
 10
0.3871012284934077
 20
0.2136388061186931
 10
0.3866662224936279
 20
0.2136388061186931
 10
0.3862108257334737
 20
0.2136388061186931
 10
0.3860001196535316
 20
0.2136388061186931
 10
0.3860001196535316
 20
0.210133424030591
 10
0.3860001196535316
 20
0.2025572752946729
 10
0.3860001196535316
 20
0.1953203572946167
 10
0.3860059914935059
 20
0.1927296262946711
 10
0.386271596157453
 20
0.1927296262946711
 10
0.3867411099815694
 20
0.1927296262946711
 10
0.387149450901358
 20
0.1927296262946711
 10
0.3873824234856276
 20
0.1931255396307119
 10
0.3878853397176414
 20
0.1941959077347013
 10
0.388543041645411
 20
0.1949261184627069
 10
0.389367578085622
 20
0.1953041226865899
 10
0.3901581386615476
 20
0.1953429457826576
 10
0.3907934611415431
 20
0.1952153362227165
 10
0.3914945906615275
 20
0.1949663081186887
 10
0.39226955997347
 20
0.1946079105987088
 10
0.3956135341656273
 20
0.1929096624626183
 10
0.4093862287894554
 20
0.1859251512147173
 10
0.4260198295656537
 20
0.1774897962866841
 10
0.4362163917336641
 20
0.1723188399506412
 10
0.4377250883256272
 20
0.171523681118682
 10
0.4388575737574732
 20
0.1708223238386193
 10
0.4397303843975858
 20
0.1701690086305767
 10
0.4403495440296821
 20
0.1695777932786022
 10
0.4408995176613422
 20
0.1689943117826687
 10
0.441324704709599
 20
0.1682951169745834
 10
0.4416340339893905
 20
0.1674684792146017
 10
0.4418356371573316
 20
0.1665836303666017
 10
0.4420818173256116
 20
0.1665836303666017
 10
0.4425590946456346
 20
0.1665836303666017
 10
0.442994353989497
 20
0.1665836303666017
 10
0.4431290259815662
 20
0.1668093012146965
 10
0.4431290259815662
 20
0.1718437163666131
 10
0.4431290259815662
 20
0.1800563319987285
 10
0.4431290259815662
 20
0.1868564141186724
 10
0.4430927681494321
 20
0.1883497434626609
 10
0.4427463919894806
 20
0.1883497434626609
 10
0.4422529543176053
 20
0.1883497434626609
 10
0.4418855693256454
 20
0.1883497434626609
 10
0.4416588913414872
 20
0.1875861487346011
 10
0.4411692759814159
 20
0.1864835326227379
 10
0.4404695723016055
 20
0.1857825556705972
 10
0.4395637969896482
 20
0.1854731767825868
 10
0.4389049640614236
 20
0.1854779793985903
 10
0.4383118689096462
 20
0.1855960448787339
 10
0.4376078599413944
 20
0.1858237889667169
 10
0.4368049856615875
 20
0.1861712524466954
 10
0.435673031565516
 20
0.1867432663825923
 10
0.4328784475655132
 20
0.1881603313825852
 10
0.429952867245377
 20
0.1896438214947338
 10
0.4285992405814936
 20
0.190330212446657
 10
0.4285992405814936
 20
0.190330212446657
 10
0.4285992405814936
 20
0.1948188893666414
 10
0.4285992405814936
 20
0.2059990418048088
 10
0.4207916234135026
 20
0.2059990418048088
 10
0.4207916234135026
 20
0.1940626341266771
 10
0.400358518149627
 20
0.2036983762945983
 10
0.4207916234135026
 20
0.2132960326227042
  0
LWPOLYLINE
  5
4BC
330
1F
100
AcDbEntity
  8
SSB-BLUE
370
     0
100
AcDbPolyline
 90
      206
 70
     1
 43
0.0
 10
0.3946837133254242
 20
0.3603458374466228
 10
0.3946837133254242
 20
0.3603458374466228
 10
0.394741368741502
 20
0.3588350928866451
 10
0.394873479525482
 20
0.3573679203746707
 10
0.3950804625093545
 20
0.3559453195586268
 10
0.3953627339015426
 20
0.3545682894626934
 10
0.3957207102215445
 20
0.353237830358724
 10
0.3961548079895651
 20
0.3519549409585814
 10
0.3966654434136716
 20
0.3507206212226928
 10
0.3972530333255015
 20
0.3495358707986238
 10
0.3979179942456135
 20
0.3484016890226993
 10
0.3986607420695805
 20
0.3473190755426714
 10
0.3994816939415386
 20
0.3462890296946792
 10
0.400479453405465
 20
0.3451406269585764
 10
0.4015620403654206
 20
0.3440827706786766
 10
0.4027158525576722
 20
0.3431391659906033
 10
0.4039398912696415
 20
0.3423085633346252
 10
0.4052331562294827
 20
0.341589713462616
 10
0.4065946481014029
 20
0.3409813668146651
 10
0.4080233675496166
 20
0.3404822741426479
 10
0.409518314925486
 20
0.3400911861986167
 10
0.4110784905814367
 20
0.3398068527987377
 10
0.412702895493462
 20
0.3396280253186372
 10
0.41439052938936
 20
0.3395534541987519
 10
0.4153509028295917
 20
0.339557959478638
 10
0.4160842844136515
 20
0.3395880237986839
 10
0.4168092625896911
 20
0.3396422621906119
 10
0.4175268370056405
 20
0.3397212571587467
 10
0.4182380066854972
 20
0.3398255921425939
 10
0.4189437719014819
 20
0.3399558499586259
 10
0.4196451316775854
 20
0.3401126137347372
 10
0.4203430853496002
 20
0.3402964665986525
 10
0.4210386331893777
 20
0.340507991678626
 10
0.4217327739094934
 20
0.3407477717905927
 10
0.4224265077814425
 20
0.3410163900626264
 10
0.4231376075734757
 20
0.3413176188867037
 10
0.4238436164615056
 20
0.3416492433746239
 10
0.4245325034136336
 20
0.3420094192945982
 10
0.4252034363255133
 20
0.3423980633426868
 10
0.4258555815335195
 20
0.3428150919026418
 10
0.4264881066215134
 20
0.3432604219826665
 10
0.4271001782376552
 20
0.3437339699666868
 10
0.4276909636536726
 20
0.3442356531746888
 10
0.428259629829503
 20
0.3447653876786418
 10
0.4288053440375857
 20
0.3453230904867457
 10
0.4293272732375062
 20
0.345908678294716
 10
0.4300276988853469
 20
0.3467397099505876
 10
0.4308238261655664
 20
0.3477894844945819
 10
0.4315411572216039
 20
0.3488880695666872
 10
0.4321796090614925
 20
0.3500347151186434
 10
0.4327390980693285
 20
0.3512286714146828
 10
0.4332195409413604
 20
0.3524691893426119
 10
0.4336208549973933
 20
0.3537555188546921
 10
0.4339429559976109
 20
0.3550869102146308
 10
0.4341857615736116
 20
0.3564626143107503
 10
0.4343491877973582
 20
0.3578818807826583
 10
0.4344331516775802
 20
0.3593439605186841
 10
0.4344344342014522
 20
0.3597842913043623
 10
0.444116745504819
 20
0.3597842913043623
 10
0.4441160963253834
 20
0.358606064294662
 10
0.4439038592613871
 20
0.3551249564305792
 10
0.4434672099576771
 20
0.3518282243427002
 10
0.4428064810053592
 20
0.3487153678945667
 10
0.441922006245517
 20
0.3457858881986313
 10
0.4408141185813977
 20
0.3430392844946919
 10
0.4394831515415856
 20
0.3404750578946665
 10
0.4379294377175454
 20
0.3380927082626313
 10
0.4361533103253672
 20
0.3358917354626616
 10
0.4341551028936426
 20
0.333871640294717
 10
0.4319351486373986
 20
0.3320319229346555
 10
0.4298994300693844
 20
0.3306417523347163
 10
0.4285911800616074
 20
0.3298955806227379
 10
0.4272673444055038
 20
0.3292173765506057
 10
0.4259273409094125
 20
0.3286081400787388
 10
0.4245705858213436
 20
0.3280688702306067
 10
0.4231964963253514
 20
0.3276005669666322
 10
0.4218044896054965
 20
0.3272042299347433
 10
0.4203939822215715
 20
0.3268808581585914
 10
0.4189643910454981
 20
0.3266314512866337
 10
0.417515133573474
 20
0.326457008966619
 10
0.4160456263656434
 20
0.3263585308466563
 10
0.4143599315494546
 20
0.3263389341265768
 10
0.4120267421975266
 20
0.3264512266706907
 10
0.4097672681495946
 20
0.3267190012947436
 10
0.407582758341647
 20
0.3271422579987373
 10
0.4054744626453735
 20
0.32772099678267
 10
0.4034436303096172
 20
0.3284552173345814
 10
0.4014915105814323
 20
0.3293449199666139
 10
0.3996193533335779
 20
0.3303901049907223
 10
0.3978284075013292
 20
0.3315907717826327
 10
0.3961199226456715
 20
0.3329469203426978
 10
0.3944951483254346
 20
0.3344585512946683
 10
0.3929596013254519
 20
0.3361127646866127
 10
0.3915683980056146
 20
0.3377896311507307
 10
0.3903073183416321
 20
0.3395692270466935
 10
0.3891768621574671
 20
0.3414523847906254
 10
0.3881775292774412
 20
0.3434399377347272
 10
0.3873098192133719
 20
0.3455327186067407
 10
0.3865742317895853
 20
0.3477315604467215
 10
0.3859712668293325
 20
0.3500372962947278
 10
0.3855014241576411
 20
0.3524507588786818
 10
0.3851652035974116
 20
0.3549727815506038
 10
0.3849631046615327
 20
0.3576041964146617
 10
0.3848956274854007
 20
0.3603458374466228
 10
0.3848956274854007
 20
0.3603458374466228
 10
0.3850569960696202
 20
0.3639497719106863
 10
0.38543754808566
 20
0.3673580028147017
 10
0.386036200893618
 20
0.3705710296706712
 10
0.3868518712296671
 20
0.3735893526146983
 10
0.3878834764535579
 20
0.3764134708466429
 10
0.3891299336135985
 20
0.3790438841906534
 10
0.3905901603816773
 20
0.3814810927826482
 10
0.3922630734936101
 20
0.3837255964465944
 10
0.3941475903094975
 20
0.385777894382711
 10
0.3962426278776565
 20
0.3876384867265674
 10
0.3985471035574806
 20
0.3893078733026574
 10
0.3999793710693424
 20
0.3902172949586458
 10
0.4013054568693458
 20
0.3909686393185785
 10
0.4026507004053519
 20
0.3916397993666098
 10
0.4040159344056376
 20
0.3922314412226146
 10
0.4054019919095522
 20
0.3927442316307363
 10
0.4068097059575049
 20
0.3931788370226394
 10
0.4082399092774223
 20
0.3935359232065849
 10
0.4096934349093547
 20
0.3938161569267215
 10
0.4111711155815785
 20
0.3940202046147068
 10
0.4126737846455822
 20
0.3941487320786265
 10
0.4142022748296377
 20
0.3942024063745943
 10
0.4153710358773557
 20
0.3941927780546193
 10
0.4164253150776612
 20
0.3941445072866489
 10
0.4174710058533507
 20
0.3940587356787066
 10
0.4185074417736577
 20
0.3939357128306371
 10
0.4195339564056813
 20
0.3937756892786979
 10
0.4205498833175856
 20
0.3935789146227329
 10
0.421554556389677
 20
0.393345638462586
 10
0.422547309189417
 20
0.3930761113346932
 10
0.4235274752856775
 20
0.3927705822146192
 10
0.4244943882455621
 20
0.3924293019505862
 10
0.4254473822615151
 20
0.3920525195186908
 10
0.4264849859975995
 20
0.3915997229667418
 10
0.4275439174294427
 20
0.3910925457506327
 10
0.4285724928216635
 20
0.3905510787985733
 10
0.4295713786053837
 20
0.3899747399187276
 10
0.430541240901361
 20
0.3893629453587417
 10
0.4314827461414322
 20
0.3887151123026768
 10
0.4323965610695684
 20
0.388030657622636
 10
0.4332833514936772
 20
0.3873089985026841
 10
0.4341437841573815
 20
0.3865495515026014
 10
0.4349785251814371
 20
0.3857517338066314
 10
0.4357882409976775
 20
0.3849149622866967
 10
0.4369123320696203
 20
0.3836150476706974
 10
0.438205201725455
 20
0.3818887114226212
 10
0.4393728898056671
 20
0.3800608488147219
 10
0.440414646573605
 20
0.3781310439507077
 10
0.4413297226054551
 20
0.3760988796866345
 10
0.442117368165631
 20
0.3739639404387098
 10
0.4427768335174776
 20
0.3717258087506634
 10
0.4433073692375427
 20
0.3693840690387091
 10
0.4437082255895222
 20
0.3669383041587126
 10
0.4439786525253302
 20
0.3643880982147518
 10
0.4441179009336676
 20
0.3617330343746534
 10
0.4441167762930372
 20
0.3597842913043623
 10
0.4344344342014522
 20
0.3597842913043623
 10
0.4344375724055052
 20
0.3608617353746961
 10
0.4343624428054964
 20
0.3623707333586292
 10
0.43420784150136
 20
0.3638280238945786
 10
0.4339738517975596
 20
0.3652336912227163
 10
0.4336605569974977
 20
0.3665878177107453
 10
0.4332680407174277
 20
0.3678904872866937
 10
0.432796385637535
 20
0.3691417829427133
 10
0.4322456753733644
 20
0.370341787982742
 10
0.431615993229384
 20
0.3714905857107098
 10
0.4309074221975662
 20
0.3725882597426953
 10
0.4301200462055892
 20
0.3736348927587088
 10
0.4292168158776004
 20
0.3747009752306525
 10
0.4281679005816051
 20
0.3758175711266922
 10
0.4270521654935467
 20
0.3768243670467184
 10
0.4258708592376239
 20
0.3777216132146712
 10
0.4246252319976751
 20
0.3785095589186183
 10
0.4233165323975428
 20
0.3791884543826764
 10
0.4219460099974955
 20
0.3797585495186464
 10
0.4205149146695817
 20
0.3802200942386955
 10
0.4190244956615654
 20
0.3805733381426588
 10
0.4174760019094413
 20
0.380818531454663
 10
0.415870683285605
 20
0.3809559237747244
 10
0.4142136275733917
 20
0.3809857640785878
 10
0.4125822950133502
 20
0.3809081531426788
 10
0.411006584565671
 20
0.3807228803667417
 10
0.409487328645434
 20
0.3804296952146915
 10
0.4080253606055387
 20
0.3800283487106073
 10
0.4066215131735556
 20
0.3795185903185914
 10
0.4052766190774007
 20
0.3789001701266565
 10
0.4039915119814071
 20
0.3781728388467433
 10
0.4027670239895738
 20
0.3773363459425925
 10
0.4016039884533936
 20
0.376390441814717
 10
0.4005032384136236
 20
0.3753348765506033
 10
0.3994816714774929
 20
0.3741943318467182
 10
0.3986586856775505
 20
0.3731761897346537
 10
0.3979113121414102
 20
0.3721078864467078
 10
0.3972401339974976
 20
0.3709900877906218
 10
0.3966457346856771
 20
0.3698234605107178
 10
0.396128696709388
 20
0.368608670726692
 10
0.3956896035095596
 20
0.3673463848707321
 10
0.3953290379014129
 20
0.3660372693746714
 10
0.3950475830133886
 20
0.3646819906706993
 10
0.3948458219735551
 20
0.3632812145667259
 10
0.3947243375974949
 20
0.3618356081186835
  0
LWPOLYLINE
  5
4BD
330
1F
100
AcDbEntity
  8
SSB-BLUE
370
     0
100
AcDbPolyline
 90
        2
 70
     1
 43
0.0
 10
0.4181827368215237
 20
0.0954581419587228
 10
0.4181827368215237
 20
0.0954581419587228
  0
LWPOLYLINE
  5
4BE
330
1F
100
AcDbEntity
  8
SSB-BLUE
370
     0
100
AcDbPolyline
 90
      100
 70
     1
 43
0.0
 10
0.422808104997424
 20
0.0954581419587228
 10
0.4308416394933872
 20
0.0954581419587228
 10
0.4338360569976754
 20
0.0948773442867133
 10
0.4338360569976754
 20
0.0823431561266919
 10
0.4338360569976754
 20
0.0668272669585823
 10
0.4338183509976412
 20
0.0631994211266314
 10
0.4336453301496342
 20
0.0625665022946143
 10
0.4332792149973699
 20
0.062023615118572
 10
0.4328277631655651
 20
0.0615925212865989
 10
0.4321608853176482
 20
0.061217817710606
 10
0.4312156201654727
 20
0.0609526919667367
 10
0.4310938696536724
 20
0.0606433137026503
 10
0.4310938696536724
 20
0.0600234586226014
 10
0.4311632653175952
 20
0.0597335326226336
 10
0.4363223069976501
 20
0.0597335326226336
 10
0.4437913676613557
 20
0.0597335326226336
 10
0.445947385317691
 20
0.0597812137106333
 10
0.445947385317691
 20
0.0602974139667314
 10
0.445947385317691
 20
0.0608509300465654
 10
0.445350350229651
 20
0.0610522199665908
 10
0.444457504821445
 20
0.0613752607107365
 10
0.4438483772375231
 20
0.061774709630738
 10
0.4434630899976178
 20
0.0622524184467039
 10
0.4432152072453253
 20
0.062837951966678
 10
0.4431290259815662
 20
0.0635040404546068
 10
0.4431290259815662
 20
0.0768399562946769
 10
0.4431290259815662
 20
0.100002336782719
 10
0.4431054893254017
 20
0.1086358762947412
 10
0.4425975486454572
 20
0.1086358762947412
 10
0.441968775981434
 20
0.1086358762947412
 10
0.4416973603175789
 20
0.1082385736225992
 10
0.4413255196534234
 20
0.1075084827026087
 10
0.4408648319974642
 20
0.1069922166147048
 10
0.440334558981391
 20
0.1066556185347443
 10
0.439679658813434
 20
0.1064384699666165
 10
0.4388529879816572
 20
0.1063516303827265
 10
0.4270784711495122
 20
0.1063507199667066
 10
0.4021268461655696
 20
0.1063507199667066
 10
0.3903603951575363
 20
0.1063516303827265
 10
0.3895293148295007
 20
0.1064384699666165
 10
0.3887989278214121
 20
0.1066556185347443
 10
0.3882276751656199
 20
0.1069922166147048
 10
0.3877792288296726
 20
0.1075084827026087
 10
0.3874065984935662
 20
0.1082385736225992
 10
0.3871262446534587
 20
0.1086358762947412
 10
0.386515965165378
 20
0.1086358762947412
 10
0.3860229639813557
 20
0.1086358762947412
 10
0.3860001196535316
 20
0.1001771931267168
 10
0.3860001196535316
 20
0.0774839242945777
 10
0.3860001196535316
 20
0.0644181027986779
 10
0.3859355574934975
 20
0.0636635626225992
 10
0.3857205479975958
 20
0.0630807927987309
 10
0.3852995504854366
 20
0.0626651576307236
 10
0.3846561344134116
 20
0.0622244772867244
 10
0.3838249554935684
 20
0.0618797512947387
 10
0.3832388890776599
 20
0.0616447569505665
 10
0.3832388890776599
 20
0.0611791003826934
 10
0.3832388890776599
 20
0.0607448366307253
 10
0.385405963077341
 20
0.060704724038744
 10
0.3929133267335469
 20
0.060704724038744
 10
0.398098825077601
 20
0.060704724038744
 10
0.3981685767334442
 20
0.0609486300387383
 10
0.3981685767334442
 20
0.0614700952946734
 10
0.3980528721576277
 20
0.0617461859666069
 10
0.3971012562455698
 20
0.0620619546146113
 10
0.3963599114855896
 20
0.0624547236146729
 10
0.3958863248134134
 20
0.0628908627986338
 10
0.39558200781347
 20
0.0633801789506423
 10
0.3954245841575945
 20
0.0640649577986618
 10
0.3954073461575751
 20
0.0676462669586444
 10
0.3954073461575751
 20
0.0827183167826409
 10
0.3954073461575751
 20
0.0948939582865904
 10
0.3980010508294276
 20
0.0954581419587228
 10
0.4049595381576517
 20
0.0954581419587228
 10
0.4089659398293995
 20
0.0954581419587228
 10
0.4089659398293995
 20
0.0894991821986349
 10
0.4089659398293995
 20
0.0791494096227439
 10
0.40896228381333
 20
0.0751334953826461
 10
0.4088553383256706
 20
0.0744655314627227
 10
0.408600314829414
 20
0.0738650912066561
 10
0.4081717756536305
 20
0.0733821554547403
 10
0.4075147364134546
 20
0.0730397660307318
 10
0.406650980325499
 20
0.0727951077985658
 10
0.4063189673976054
 20
0.0725602120467368
 10
0.4063189673976054
 20
0.0719377904547285
 10
0.4063189673976054
 20
0.0715078703666858
 10
0.4098164873976407
 20
0.0715020874466568
 10
0.4172941034134637
 20
0.0715020874466568
 10
0.4207916234135026
 20
0.0715078703666858
 10
0.4207916234135026
 20
0.0719377904547285
 10
0.4207916234135026
 20
0.0725602120467368
 10
0.4204635373173682
 20
0.0727951077985658
 10
0.419593792077472
 20
0.0730397660307318
 10
0.4189497179974522
 20
0.0733821554547403
 10
0.4185483618215092
 20
0.0738650912066561
 10
0.4182933383256087
 20
0.0744655314627227
 10
0.4181863931493775
 20
0.0751334953826461
 10
0.4181827368215237
 20
0.0791494096227439
 10
0.4181827368215237
 20
0.0894991821986349
 10
0.4181827368215237
 20
0.0954581419587228
  0
LWPOLYLINE
  5
4BF
330
1F
100
AcDbEntity
  8
SSB-BLUE
370
     0
100
AcDbPolyline
 90
        2
 70
     1
 43
0.0
 10
0.4265997289893706
 20
0.1424942747907316
 10
0.4265997289893706
 20
0.1424942747907316
  0
LWPOLYLINE
  5
4C0
330
1F
100
AcDbEntity
  8
SSB-BLUE
370
     0
100
AcDbPolyline
 90
      100
 70
     1
 43
0.0
 10
0.4213510107095653
 20
0.140042492678738
 10
0.4098038304934875
 20
0.1346485717827486
 10
0.3982566502774105
 20
0.1292546508865779
 10
0.3930079319976025
 20
0.1268028684626259
 10
0.3920046058293831
 20
0.1263440518706709
 10
0.3911369603496242
 20
0.1260030639506686
 10
0.3904049964933316
 20
0.1257906156626705
 10
0.3898087133254959
 20
0.1257174192145793
 10
0.3889226202214599
 20
0.1259045761586677
 10
0.3882043431815649
 20
0.1264577147185886
 10
0.3876503119895407
 20
0.1273643386706169
 10
0.3872569554934175
 20
0.1286119505426484
 10
0.3870605748934359
 20
0.1286119505426484
 10
0.3866285375734746
 20
0.1286119505426484
 10
0.386196500253515
 20
0.1286119505426484
 10
0.3860001196535316
 20
0.1286119505426484
 10
0.3860001196535316
 20
0.1254609343106656
 10
0.3860001196535316
 20
0.1185286986627334
 10
0.3860001196535316
 20
0.1115964630146236
 10
0.3860001196535316
 20
0.1084454467826408
 10
0.386196500253515
 20
0.1084454467826408
 10
0.3866285375734746
 20
0.1084454467826408
 10
0.3870605748934359
 20
0.1084454467826408
 10
0.3872569554934175
 20
0.1084454467826408
 10
0.3874456000536286
 20
0.1093324325186007
 10
0.3876806614774439
 20
0.1100712400947064
 10
0.3879799933415455
 20
0.1106922193106428
 10
0.3883614476615502
 20
0.1112257199666349
 10
0.3889937337574469
 20
0.111580395326607
 10
0.3899777196694645
 20
0.1121207397025827
 10
0.3913151906614489
 20
0.1128324706705763
 10
0.3930079319976025
 20
0.1137013061187284
 10
0.3996908241093351
 20
0.1168731505346434
 10
0.414393186069642
 20
0.1238512083746563
 10
0.4290955480295953
 20
0.1308292662146657
 10
0.4357784398295399
 20
0.134001110630579
 10
0.4370147451333981
 20
0.1345789458627067
 10
0.4380136084534252
 20
0.1349961057746558
 10
0.4387803855815236
 20
0.1352490201506935
 10
0.4393204319974622
 20
0.1353341184625902
 10
0.440254132557425
 20
0.1351633268545989
 10
0.4409914525174044
 20
0.1346533322786652
 10
0.4415216802936053
 20
0.1338077055746289
 10
0.441834103989371
 20
0.132630016958581
 10
0.4420364356774149
 20
0.132630016958581
 10
0.442481564829401
 20
0.132630016958581
 10
0.4429266942935231
 20
0.132630016958581
 10
0.4431290259815662
 20
0.132630016958581
 10
0.4431290259815662
 20
0.1358018613746719
 10
0.4431290259815662
 20
0.1427799192146839
 10
0.4431290259815662
 20
0.1497579770546942
 10
0.4431290259815662
 20
0.1529298217827488
 10
0.4429266942935231
 20
0.1529298217827488
 10
0.442481564829401
 20
0.1529298217827488
 10
0.4420364356774149
 20
0.1529298217827488
 10
0.441834103989371
 20
0.1529298217827488
 10
0.4415204900134225
 20
0.1517339828787163
 10
0.4409819312134325
 20
0.1509041259026533
 10
0.4402219978056677
 20
0.1504206129506374
 10
0.4392442603174782
 20
0.1502638061187298
 10
0.4387321828294404
 20
0.1503444412706507
 10
0.4379898047254623
 20
0.150580395326573
 10
0.4370081990616708
 20
0.1509627425906377
 10
0.4357784398295399
 20
0.1514825561186228
 10
0.4290955480295953
 20
0.1546960569025835
 10
0.414393186069642
 20
0.1617657591267463
 10
0.3996908241093351
 20
0.1688354613507395
 10
0.3930079319976025
 20
0.1720489624466577
 10
0.3913151906614489
 20
0.1728669172466004
 10
0.3899777196694645
 20
0.1735509763106737
 10
0.3889937337574469
 20
0.1741029249027282
 10
0.3883614476615502
 20
0.174524548286616
 10
0.3879799933415455
 20
0.1749717603507062
 10
0.3876806614774439
 20
0.1755314452946717
 10
0.3874456000536286
 20
0.1762303817665778
 10
0.3872569554934175
 20
0.1770953490386038
 10
0.3870605748934359
 20
0.1770953490386038
 10
0.3866285375734746
 20
0.1770953490386038
 10
0.386196500253515
 20
0.1770953490386038
 10
0.3860001196535316
 20
0.1770953490386038
 10
0.3860001196535316
 20
0.1738312652546892
 10
0.3860001196535316
 20
0.166650280742612
 10
0.3860001196535316
 20
0.1594692962307134
 10
0.3860001196535316
 20
0.1562052124466238
 10
0.386196500253515
 20
0.1562052124466238
 10
0.3866285375734746
 20
0.1562052124466238
 10
0.3870605748934359
 20
0.1562052124466238
 10
0.3872569554934175
 20
0.1562052124466238
 10
0.3876503119895407
 20
0.1574400298227481
 10
0.3882043431815649
 20
0.1582999389505968
 10
0.3889226202214599
 20
0.1588027921586423
 10
0.3898087133254959
 20
0.1589664427107102
 10
0.3904049964933316
 20
0.1589197278867065
 10
0.3911369603496242
 20
0.1587641113346283
 10
0.3920046058293831
 20
0.1584763839985683
 10
0.3930079319976025
 20
0.1580333374467306
 10
0.3982566502774105
 20
0.1556053587507389
 10
0.4098038304934875
 20
0.1502638061187298
 10
0.4213510107095653
 20
0.1449222531745828
 10
0.4265997289893706
 20
0.1424942747907316
  0
LWPOLYLINE
  5
4C1
330
1F
100
AcDbEntity
  8
SSB-BLUE
370
     0
100
AcDbPolyline
 90
        2
 70
     1
 43
0.0
 10
0.4028721898294006
 20
0.2804986692147189
 10
0.4028721898294006
 20
0.2804986692147189
  0
LWPOLYLINE
  5
4C2
330
1F
100
AcDbEntity
  8
SSB-BLUE
370
     0
100
AcDbPolyline
 90
      100
 70
     1
 43
0.0
 10
0.4159530125975257
 20
0.2856149587826833
 10
0.4341683638295822
 20
0.2927395115426172
 10
0.4372256877093932
 20
0.2940044016626304
 10
0.438585330981355
 20
0.2944574946146368
 10
0.4396241580694156
 20
0.2944664321666117
 10
0.4409373373654173
 20
0.2935302771026062
 10
0.441834489933477
 20
0.2915435912065938
 10
0.4423655813254808
 20
0.2915435912065938
 10
0.4430690633254164
 20
0.2915435912065938
 10
0.4431290259815662
 20
0.295463548286671
 10
0.4431290259815662
 20
0.306436996070687
 10
0.4430401839814984
 20
0.3096915404545717
 10
0.4423086385175301
 20
0.3096915404545717
 10
0.4418083717894437
 20
0.3095829045506253
 10
0.4409538618216029
 20
0.3077626684706258
 10
0.4394740139974572
 20
0.3069522681266719
 10
0.438337752117608
 20
0.3070369717586647
 10
0.4366785776136704
 20
0.3076230774866531
 10
0.4319719115973717
 20
0.3094446561027127
 10
0.407936096157469
 20
0.3186456967826174
 10
0.3929307753334665
 20
0.3243867036386776
 10
0.390649304661542
 20
0.3253605467426261
 10
0.3891127458455452
 20
0.3262435469906659
 10
0.3881666329895372
 20
0.3271632674546687
 10
0.3875223670294172
 20
0.3284042327906853
 10
0.387149450901358
 20
0.3292677124465877
 10
0.3864245054856772
 20
0.3292677124465877
 10
0.3860001196535316
 20
0.3291762524545723
 10
0.3860001196535316
 20
0.3203594968706067
 10
0.3860001196535316
 20
0.3102396732867216
 10
0.3863203942053461
 20
0.3096915404545717
 10
0.3870745231656212
 20
0.3096915404545717
 10
0.3875485918776711
 20
0.3105739204467159
 10
0.3885799322136671
 20
0.3119246529987389
 10
0.3899810140775983
 20
0.3123177561505983
 10
0.3909693436533619
 20
0.3121615199667236
 10
0.392272877157434
 20
0.3117517688066016
 10
0.4006991756615426
 20
0.3086309061265755
 10
0.418765961853401
 20
0.3019411893266231
 10
0.4196644319974317
 20
0.2991790598787176
 10
0.4018136218776105
 20
0.2920856528307114
 10
0.392161320933516
 20
0.2882357366307202
 10
0.3908023784133769
 20
0.2876977200867419
 10
0.3899840573255506
 20
0.2875106108785719
 10
0.3886362900214157
 20
0.2878432162946218
 10
0.3875955070056109
 20
0.2891838656306191
 10
0.3871139552853906
 20
0.2902677124466208
 10
0.3863714994936655
 20
0.2902677124466208
 10
0.3860001196535316
 20
0.2899800284786735
 10
0.3860001196535316
 20
0.2800035520466188
 10
0.3860001196535316
 20
0.2700270759267083
 10
0.3863714994936655
 20
0.2697393919585815
 10
0.3871139552853906
 20
0.2697393919585815
 10
0.3876748248935255
 20
0.2708179516226679
 10
0.3888655295254422
 20
0.2721730166065965
 10
0.3902777541575082
 20
0.2725146051266334
 10
0.3910854850295315
 20
0.2723267926705937
 10
0.3923765853334871
 20
0.2719078587266441
 10
0.4019451339336815
 20
0.2682636996626817
 10
0.4196842368215457
 20
0.2614942434627014
 10
0.418837606101592
 20
0.2587844301746891
 10
0.4010893781494671
 20
0.2520719592147067
 10
0.3927257211333401
 20
0.2489118559826977
 10
0.3910997353174359
 20
0.2484093244465857
 10
0.3899174010213899
 20
0.2482228414226419
 10
0.3885283985495471
 20
0.2486518966466766
 10
0.3875413874854532
 20
0.2501901561747424
 10
0.3870745231656212
 20
0.2512296262947018
 10
0.3863203942053461
 20
0.2512296262947018
 10
0.3860001196535316
 20
0.2506852259187031
 10
0.3860001196535316
 20
0.2406343115907044
 10
0.3860001196535316
 20
0.231877592294607
 10
0.3864245054856772
 20
0.2317867553666737
 10
0.387149450901358
 20
0.2317867553666737
 10
0.38759199294946
 20
0.2327005200626653
 10
0.3882581269895775
 20
0.2339329275507014
 10
0.3890891439815052
 20
0.2347416618147173
 10
0.3905772151895199
 20
0.2355923463506109
 10
0.3929209005336105
 20
0.2365740137907064
 10
0.407936096157469
 20
0.2423805874466378
 10
0.4319719115973717
 20
0.2516903872705987
 10
0.4366790967813597
 20
0.2534862408627259
 10
0.438463995429423
 20
0.2540279087426462
 10
0.4397163989975752
 20
0.2540988101187516
 10
0.4410509094214428
 20
0.2532131681666971
 10
0.4418128979733922
 20
0.251198327078697
 10
0.4423086385175301
 20
0.2510772826225986
 10
0.4430401839814984
 20
0.2510772826225986
 10
0.4431290259815662
 20
0.2543898827186535
 10
0.4431290259815662
 20
0.2655590796147287
 10
0.4430690633254164
 20
0.2695489624466578
 10
0.4423655813254808
 20
0.2695489624466578
 10
0.441834489933477
 20
0.2695489624466578
 10
0.4410942399814806
 20
0.2676372819746557
 10
0.4396749834935712
 20
0.2667546018387412
 10
0.4384332138214742
 20
0.2667862754546899
 10
0.436794037269598
 20
0.2673366475106773
 10
0.4334833094855686
 20
0.2686904931986582
 10
0.415666681149637
 20
0.2755632207747034
 10
0.4028721898294006
 20
0.2804986692147189
  0
LWPOLYLINE
  5
4C3
330
1F
100
AcDbEntity
  8
SSB-BLUE
370
     0
100
AcDbPolyline
 90
        2
 70
     1
 43
0.0
 10
0.4103370338133612
 20
0.4435636106306884
 10
0.4103370338133612
 20
0.4435636106306884
  0
LWPOLYLINE
  5
4C4
330
1F
100
AcDbEntity
  8
SSB-BLUE
370
     0
100
AcDbPolyline
 90
        2
 70
     1
 43
0.0
 10
0.4199727759816377
 20
0.4435636106306884
 10
0.4199727759816377
 20
0.4435636106306884
  0
LWPOLYLINE
  5
4C5
330
1F
100
AcDbEntity
  8
SSB-BLUE
370
     0
100
AcDbPolyline
 90
        2
 70
     1
 43
0.0
 10
0.4230958226616206
 20
0.4727374389506327
 10
0.4230958226616206
 20
0.4727374389506327
  0
LWPOLYLINE
  5
4C6
330
1F
100
AcDbEntity
  8
SSB-BLUE
370
     0
100
AcDbPolyline
 90
      100
 70
     1
 43
0.0
 10
0.4258833233256212
 20
0.4708994307266572
 10
0.4313412026614652
 20
0.4673006414545924
 10
0.4351125269974228
 20
0.4648139243906613
 10
0.4353966519816606
 20
0.464853332798711
 10
0.435732065709412
 20
0.465303277982633
 10
0.4360224606454582
 20
0.4656928324467416
 10
0.4357063297655915
 20
0.4661448252867127
 10
0.4352498962296929
 20
0.4668040385426711
 10
0.4350205325494932
 20
0.4673758496785867
 10
0.434997125997656
 20
0.4678794441987364
 10
0.4353003800135627
 20
0.4687973238626971
 10
0.4360045206454144
 20
0.4702645416147267
 10
0.437268979581627
 20
0.4724637516147166
 10
0.439577316573546
 20
0.4768240832786584
 10
0.4413443307574072
 20
0.4806762524307313
 10
0.4425870417334102
 20
0.4840474901186589
 10
0.4433990835095268
 20
0.4873009141107226
 10
0.4439393583094545
 20
0.4909038439345928
 10
0.4441952466693646
 20
0.4949033775507204
 10
0.4439481782376822
 20
0.5017488684626814
 10
0.4424936279973784
 20
0.5091969071905887
 10
0.4397935962216382
 20
0.5157131679027014
 10
0.43665880211746
 20
0.5203657097187185
 10
0.4340009321495604
 20
0.5231624390307008
 10
0.4309662223414535
 20
0.5255766189027283
 10
0.427464268821483
 20
0.5276157267266193
 10
0.4233002004453788
 20
0.5292900329187181
 10
0.4188547105655323
 20
0.5303210107107166
 10
0.4141312024774964
 20
0.5306848329747203
 10
0.4078348256375986
 20
0.5301247583425841
 10
0.4020502186536517
 20
0.5283681072387303
 10
0.3968207694936625
 20
0.5254146169586438
 10
0.3907610352936039
 20
0.5196972431666503
 10
0.3862493764536925
 20
0.5116673880866874
 10
0.3840022694615745
 20
0.5018260235666565
 10
0.3837771792455129
 20
0.4942249666227534
 10
0.3840948058533779
 20
0.4902802801106408
 10
0.3846953911893296
 20
0.4867683219986266
 10
0.3855481745494806
 20
0.4836256090226963
 10
0.3868584241656085
 20
0.4801635874466293
 10
0.3887308587815772
 20
0.4762052615426056
 10
0.3910518451895175
 20
0.4718764708945962
 10
0.3921183070536731
 20
0.4699931362466554
 10
0.3928006825654986
 20
0.4686106074626668
 10
0.393078548205672
 20
0.4677867502466491
 10
0.3930014848294707
 20
0.4672898159905783
 10
0.3927004444535615
 20
0.4667034472466387
 10
0.3922016509894321
 20
0.4660307746225687
 10
0.3920272102294016
 20
0.465649607654683
 10
0.3923128637016502
 20
0.4652249878227038
 10
0.3925985171735426
 20
0.4648003676785893
 10
0.393149538813681
 20
0.4650206939666264
 10
0.3974875818215659
 20
0.4678810912467331
 10
0.4028094488135468
 20
0.4713901973666168
 10
0.4048465838614739
 20
0.4727457225506413
 10
0.4046050721495576
 20
0.4730750569586633
 10
0.4042282844134322
 20
0.4735888582467363
 10
0.4040157599974937
 20
0.4738786641267314
 10
0.403677526725482
 20
0.4738555623986187
 10
0.4033209946536731
 20
0.4738443684626353
 10
0.4029952070616325
 20
0.4738419588866858
 10
0.4023836215413877
 20
0.4738877938705919
 10
0.4016555966856439
 20
0.4741213717346718
 10
0.40096248899739
 20
0.4745771884466033
 10
0.400272041421518
 20
0.4752520104386769
 10
0.3995226049416249
 20
0.4762613566467265
 10
0.3987268320933479
 20
0.4776005473827194
 10
0.3974149382375804
 20
0.479975482958702
 10
0.395360609181667
 20
0.4847956601906054
 10
0.3941753614295029
 20
0.489762862118754
 10
0.3938082166774857
 20
0.4949125930947354
 10
0.3943022568215149
 20
0.5007126484466813
 10
0.3957361997733955
 20
0.5057383815746164
 10
0.3981270651336794
 20
0.5099523506066941
 10
0.4018605323256042
 20
0.5137824750867157
 10
0.4064113169013988
 20
0.516357230126598
 10
0.4116512174375986
 20
0.5175651727587117
 10
0.4173649770216486
 20
0.5174603928626383
 10
0.4224766443093682
 20
0.5160359103746659
 10
0.4268625219096851
 20
0.5132352826225884
 10
0.4303524846455487
 20
0.5093291362225943
 10
0.4326275480853399
 20
0.5049817051346768
 10
0.4339589753256084
 20
0.4998285487107044
 10
0.4343238824135956
 20
0.4940447526147338
 10
0.4337851910135902
 20
0.4889516150066733
 10
0.4324334173174745
 20
0.4840083568946403
 10
0.4303264273415826
 20
0.4792115746705879
 10
0.4292088508295607
 20
0.4773659077826267
 10
0.4283859823415819
 20
0.4760739316945984
 10
0.4276382181813885
 20
0.4751260744466262
 10
0.4269418816053632
 20
0.4744875087267033
 10
0.4262438904933914
 20
0.4740693791186513
 10
0.425488802757605
 20
0.4738690960227246
 10
0.4249216494695931
 20
0.4738420356387234
 10
0.4246285485573616
 20
0.4738454014946712
 10
0.4242816444933882
 20
0.473858649950742
 10
0.4239595235255234
 20
0.4738640048065817
 10
0.4236884594854251
 20
0.4735104432867115
 10
0.4232961743975326
 20
0.4729987670306511
 10
0.4230958226616206
 20
0.4727374389506327
  0
LWPOLYLINE
  5
4C7
330
1F
100
AcDbEntity
  8
SSB-BLUE
370
     0
100
AcDbPolyline
 90
        2
 70
     1
 43
0.0
 10
0.4387491431495576
 20
0.5523751341266064
 10
0.4387491431495576
 20
0.5523751341266064
  0
LWPOLYLINE
  5
4C8
330
1F
100
AcDbEntity
  8
SSB-BLUE
370
     0
100
AcDbPolyline
 90
      100
 70
     1
 43
0.0
 10
0.4354306331494664
 20
0.5523751341266064
 10
0.4270600631494501
 20
0.5523751341266064
 10
0.4160148731495382
 20
0.5523751341266064
 10
0.404672503149401
 20
0.5523751341266064
 10
0.395410393149417
 20
0.5523751341266064
 10
0.3906059831496211
 20
0.5523751341266064
 10
0.390107758149437
 20
0.5523841506147047
 10
0.3897532968216506
 20
0.552423983966623
 10
0.3894128754936501
 20
0.5524951736307298
 10
0.3890911741656016
 20
0.5525972512946833
 10
0.3887928731494545
 20
0.5527297489586527
 10
0.3885226518214546
 20
0.5528921986226134
 10
0.3882835721493531
 20
0.5530793009667488
 10
0.3880677948216231
 20
0.5533150416145852
 10
0.3878712054935072
 20
0.5536088139507394
 10
0.3876909961656114
 20
0.5539564062866687
 10
0.3875243591496336
 20
0.5543536066225787
 10
0.3873684858215389
 20
0.5547962029586771
 10
0.3872510836534415
 20
0.5551554076227383
 10
0.3871262446534587
 20
0.5551554076227383
 10
0.386885575653638
 20
0.5551554076227383
 10
0.3865908526536765
 20
0.5551554076227383
 10
0.3863038516536319
 20
0.5551554076227383
 10
0.3860863486535662
 20
0.5551554076227383
 10
0.3860001196535316
 20
0.5551554076227383
 10
0.3860001196535316
 20
0.5539286039666403
 10
0.3860001196535316
 20
0.5508341296225936
 10
0.3860001196535316
 20
0.5467508879667263
 10
0.3860001196535316
 20
0.5425577836226588
 10
0.3860001196535316
 20
0.5391337199666975
 10
0.3860001196535316
 20
0.5373576016226363
 10
0.3860500711655685
 20
0.5372740598786301
 10
0.386240547165567
 20
0.5372740598786301
 10
0.386515965165378
 20
0.5372740598786301
 10
0.3868145491656509
 20
0.5372740598786301
 10
0.3870745231656212
 20
0.5372740598786301
 10
0.3872341111655908
 20
0.5372740598786301
 10
0.3873301974935259
 20
0.5375153138786502
 10
0.3874794894934865
 20
0.5379635115506405
 10
0.3876372054933865
 20
0.5383636225346633
 10
0.3878089614934321
 20
0.5387128382066991
 10
0.3880003734934645
 20
0.5390083508786106
 10
0.3882170574936809
 20
0.5392473525506461
 10
0.3884600324853782
 20
0.53943665262263
 10
0.3887225024855576
 20
0.5396041576225877
 10
0.3890142224853514
 20
0.5397307126226885
 10
0.3893305124856612
 20
0.5398209976227486
 10
0.3896666924856111
 20
0.5398796926225789
 10
0.3900180824853905
 20
0.5399114776226988
 10
0.3903800024855366
 20
0.539921032622738
 10
0.3936985124856305
 20
0.539921032622738
 10
0.4020690824856441
 20
0.539921032622738
 10
0.4131142724855606
 20
0.539921032622738
 10
0.4244566424853425
 20
0.539921032622738
 10
0.4337187524856807
 20
0.539921032622738
 10
0.438523162485474
 20
0.539921032622738
 10
0.4390533066454232
 20
0.5399157676227313
 10
0.4394264389894005
 20
0.5398899789507264
 10
0.4397668116454172
 20
0.5398384499667337
 10
0.4400791039893699
 20
0.5397565012946926
 10
0.4403679966453416
 20
0.5396394526226525
 10
0.4406381689895751
 20
0.5394826239506241
 10
0.4408829476534955
 20
0.5392965986307328
 10
0.4410933819816849
 20
0.5390635056147062
 10
0.4412801819976116
 20
0.5387699232867078
 10
0.4414470923253307
 20
0.5384242759586373
 10
0.4415978566535382
 20
0.5380349876306241
 10
0.4417362189816636
 20
0.537610482614566
 10
0.4418401539813806
 20
0.5372740598786301
 10
0.441968775981434
 20
0.5372740598786301
 10
0.4422167379814566
 20
0.5372740598786301
 10
0.4425203919816756
 20
0.5372740598786301
 10
0.4428160899816112
 20
0.5372740598786301
 10
0.4430401839814984
 20
0.5372740598786301
 10
0.4431290259815662
 20
0.5372740598786301
 10
0.4431290259815662
 20
0.5385008635347309
 10
0.4431290259815662
 20
0.5415953378786016
 10
0.4431290259815662
 20
0.545678579534644
 10
0.4431290259815662
 20
0.5498716838787124
 10
0.4431290259815662
 20
0.5532957475346727
 10
0.4431290259815662
 20
0.5550718658787313
 10
0.443077560645647
 20
0.5551554076227383
 10
0.4428813126456817
 20
0.5551554076227383
 10
0.4425975486454572
 20
0.5551554076227383
 10
0.4422899166454553
 20
0.5551554076227383
 10
0.4420220646454407
 20
0.5551554076227383
 10
0.4418576406455355
 20
0.5551554076227383
 10
0.4417679259815453
 20
0.5549134516226957
 10
0.4416224069974799
 20
0.5544601642947207
 10
0.4414593383256431
 20
0.5540512199667216
 10
0.4412787196535382
 20
0.5536908309506244
 10
0.4410805509815266
 20
0.5533832086226589
 10
0.4408648319974642
 20
0.5531325652945834
 10
0.4406359434936311
 20
0.5529374361266326
 10
0.4403981118214544
 20
0.5527675717826952
 10
0.4401333701493924
 20
0.5526275421266096
 10
0.4398389101655571
 20
0.552517815782668
 10
0.4395119244934227
 20
0.552438860126614
 10
0.4391496048214556
 20
0.5523911437827423
 10
0.4387491431495576
 20
0.5523751341266064
  0
LWPOLYLINE
  5
4C9
330
1F
100
AcDbEntity
  8
SSB-BLUE
370
     0
100
AcDbPolyline
 90
        2
 70
     1
 43
0.0
 10
0.4431290259815662
 20
0.6048575561185885
 10
0.4431290259815662
 20
0.6048575561185885
  0
LWPOLYLINE
  5
4CA
330
1F
100
AcDbEntity
  8
SSB-BLUE
370
     0
100
AcDbPolyline
 90
      100
 70
     1
 43
0.0
 10
0.431481200493602
 20
0.611272300454699
 10
0.4112507669973687
 20
0.6224136984626778
 10
0.4043469504934328
 20
0.6265665404545722
 10
0.4180912331494407
 20
0.6265665404545722
 10
0.4351050804934982
 20
0.6265665404545722
 10
0.4391496048214556
 20
0.6265491464546065
 10
0.4399154649814632
 20
0.6263865236307025
 10
0.4405202158294852
 20
0.6260616074547416
 10
0.441028266645402
 20
0.6256096071266369
 10
0.4414593383256431
 20
0.6249346341267046
 10
0.4418015633255133
 20
0.6239546202866793
 10
0.4421470399893251
 20
0.623824352798609
 10
0.4428160899816112
 20
0.623824352798609
 10
0.4431290259815662
 20
0.6239049586226262
 10
0.4431290259815662
 20
0.629897384126724
 10
0.4431290259815662
 20
0.6385729852946165
 10
0.443077560645647
 20
0.6410772826225984
 10
0.4425203919816756
 20
0.6410772826225984
 10
0.4419229459894414
 20
0.6410772826225984
 10
0.441660431997585
 20
0.6404712591266968
 10
0.4412787196535382
 20
0.6396020077826119
 10
0.4408081603173422
 20
0.6390040354466962
 10
0.4402692801575592
 20
0.6386073807987236
 10
0.4395968739813681
 20
0.6383728251266634
 10
0.4387491431495576
 20
0.638297009126644
 10
0.4244566424853425
 20
0.638297009126644
 10
0.3996328254933399
 20
0.638297009126644
 10
0.3901980188136855
 20
0.6383006847987503
 10
0.3894128754936501
 20
0.6384108551186794
 10
0.3887225024855576
 20
0.6386821341266673
 10
0.3881731094855745
 20
0.6391142931265837
 10
0.3877346664934666
 20
0.6397711676306593
 10
0.3873684858215389
 20
0.640702875446662
 10
0.3870745231656212
 20
0.6410772826225984
 10
0.38644252598165
 20
0.6410772826225984
 10
0.3860059914935059
 20
0.6410772826225984
 10
0.3860001196535316
 20
0.6355870966227233
 10
0.3860001196535316
 20
0.6238492070307427
 10
0.3860059914935059
 20
0.61835902103069
 10
0.38644252598165
 20
0.61835902103069
 10
0.3870745231656212
 20
0.61835902103069
 10
0.3874108469976125
 20
0.6188404392146581
 10
0.3880897031494115
 20
0.6198996913827264
 10
0.3891357926615679
 20
0.6204021698786911
 10
0.390037990581618
 20
0.620425259126586
 10
0.3906515276614435
 20
0.6202475982145934
 10
0.3913924119095435
 20
0.6199437747986778
 10
0.3972406887333779
 20
0.6167815696226242
 10
0.4124281735655267
 20
0.6085134794546035
 10
0.421172483061624
 20
0.6037530639506335
 10
0.4125969824133824
 20
0.5988969898706067
 10
0.3977026924056766
 20
0.5904627559586713
 10
0.3918316910616761
 20
0.5871606855506731
 10
0.3906203129973935
 20
0.5866053267986793
 10
0.3897305610694603
 20
0.5863147318706555
 10
0.3887921199814022
 20
0.5863333361186243
 10
0.3878490924936111
 20
0.5868957039506287
 10
0.387334899645599
 20
0.5879793067826249
 10
0.3870745231656212
 20
0.5884425169586863
 10
0.38644252598165
 20
0.5884425169586863
 10
0.3860059914935059
 20
0.5884425169586863
 10
0.3860001196535316
 20
0.5830949929586567
 10
0.3860001196535316
 20
0.5716621114465834
 10
0.3860059914935059
 20
0.566314587446728
 10
0.38644252598165
 20
0.566314587446728
 10
0.3870745231656212
 20
0.566314587446728
 10
0.3873684858215389
 20
0.5666571194545789
 10
0.3877346664934666
 20
0.5675188684465838
 10
0.3881731094855745
 20
0.5681359919666136
 10
0.3887225024855576
 20
0.5686072083747434
 10
0.3894128754936501
 20
0.5688995146225811
 10
0.3901980188136855
 20
0.5689969500386463
 10
0.3996328254933399
 20
0.5689996460306528
 10
0.4244566424853425
 20
0.5689996460306528
 10
0.4387491431495576
 20
0.5689996460306528
 10
0.4395968739813681
 20
0.5689353799587194
 10
0.4402692801575592
 20
0.568692828038591
 10
0.4408081603173422
 20
0.5682404464466817
 10
0.4412787196535382
 20
0.5676769597826663
 10
0.441660431997585
 20
0.5668700326226262
 10
0.4419229459894414
 20
0.566314587446728
 10
0.4425203919816756
 20
0.566314587446728
 10
0.443077560645647
 20
0.566314587446728
 10
0.4431290259815662
 20
0.5689681474465918
 10
0.4431290259815662
 20
0.5781608374466574
 10
0.4431290259815662
 20
0.5845104274467224
 10
0.4428160899816112
 20
0.5845958374467309
 10
0.4421470399893251
 20
0.5845958374467309
 10
0.4418019193174372
 20
0.5844719756306285
 10
0.441486150981568
 20
0.5835157199667283
 10
0.4410933819816849
 20
0.5828260049666314
 10
0.4405721248296102
 20
0.5823600966146536
 10
0.4399261753174173
 20
0.5820515676147365
 10
0.4391499168213482
 20
0.5819065166306903
 10
0.4351050804934982
 20
0.5818917356305793
 10
0.4180912331494407
 20
0.5818917356305793
 10
0.4043469504934328
 20
0.5818917356305793
 10
0.4112507669973687
 20
0.5862850054466504
 10
0.431481200493602
 20
0.5980714316307357
 10
0.4431290259815662
 20
0.6048575561185885
  0
LWPOLYLINE
  5
4CB
330
1F
100
AcDbEntity
  8
SSB-BLUE
370
     0
100
AcDbPolyline
 90
        2
 70
     1
 43
0.0
 10
0.322301389077662
 20
0.115834118462697
 10
0.322301389077662
 20
0.115834118462697
  0
LWPOLYLINE
  5
4CC
330
1F
100
AcDbEntity
  8
SSB-BLUE
370
     0
100
AcDbPolyline
 90
      100
 70
     1
 43
0.0
 10
0.322301389077662
 20
0.1102701076465991
 10
0.322301389077662
 20
0.0972011517987204
 10
0.322301389077662
 20
0.082061866598691
 10
0.322301389077662
 20
0.0702868667906138
 10
0.3222986899656881
 20
0.0667565365586933
 10
0.3222300209493865
 20
0.0660617309667249
 10
0.3220734758855857
 20
0.0654350496386513
 10
0.3218354036616855
 20
0.0648786088706785
 10
0.3215221531654357
 20
0.0643945246467066
 10
0.3211211819975359
 20
0.0639952919426179
 10
0.3205875861814835
 20
0.0636419769026251
 10
0.3199292299896159
 20
0.0633147126147042
 10
0.3191503466375671
 20
0.0630209053346365
 10
0.3182551684056269
 20
0.0627679628787172
 10
0.317978635317691
 20
0.0625873928785978
 10
0.317978635317691
 20
0.0621359120306728
 10
0.317978635317691
 20
0.0615419345425767
 10
0.317978635317691
 20
0.0610192053747438
 10
0.317978635317691
 20
0.0607814691745876
 10
0.3204502603176786
 20
0.0607808960306908
 10
0.3266877387336677
 20
0.0607808960306908
 10
0.3340571263176315
 20
0.0607808960306908
 10
0.3399173015733465
 20
0.0607808960306908
 10
0.3417442603174772
 20
0.0607898816307238
 10
0.3417442603174772
 20
0.0610814178626509
 10
0.3417442603174772
 20
0.0616274116225837
 10
0.3417442603174772
 20
0.0622141188866667
 10
0.3417442603174772
 20
0.0626277943826814
 10
0.3412881322293959
 20
0.0628013147426883
 10
0.3403495151735711
 20
0.0630605486785783
 10
0.3395731462293909
 20
0.0633595888225704
 10
0.338942095653552
 20
0.0636910282946053
 10
0.3384394327656217
 20
0.0640474602146188
 10
0.3381030749254235
 20
0.064459169174615
 10
0.3378632224294105
 20
0.0649537197507053
 10
0.337687362069496
 20
0.0655203245425975
 10
0.3375776104535033
 20
0.0661568675667308
 10
0.3375360838774721
 20
0.0668612322145945
 10
0.3375357640776615
 20
0.073556301686657
 10
0.3375357640776615
 20
0.0915858684626869
 10
0.3375357640776615
 20
0.113321954054733
 10
0.3375357640776615
 20
0.1309808691985905
 10
0.3375295665093709
 20
0.1369718139505966
 10
0.3371957767414679
 20
0.1369718139505966
 10
0.336539707509532
 20
0.1369718139505966
 10
0.3358216610375386
 20
0.1369718139505966
 10
0.3353019407976676
 20
0.1369718139505966
 10
0.3350991673175452
 20
0.1366261422867163
 10
0.3348246238534225
 20
0.1358162632947115
 10
0.3345126928056246
 20
0.1351341673347335
 10
0.3341654904694726
 20
0.1345629243506252
 10
0.3337851328295756
 20
0.1340856042865948
 10
0.3332553718055475
 20
0.1337491338147387
 10
0.3326202589893921
 20
0.1335091265666213
 10
0.3319428205653585
 20
0.1333280726546864
 10
0.3312124747414726
 20
0.1332112632867037
 10
0.330418640661474
 20
0.1331639887347329
 10
0.3236797514135166
 20
0.1331632199666712
 10
0.3041675628214415
 20
0.1331632199666712
 10
0.2801503110695878
 20
0.1331632199666712
 10
0.2602285709974099
 20
0.1331632199666712
 10
0.2528219396614499
 20
0.1331635622307044
 10
0.2519730257254507
 20
0.1332073935505873
 10
0.251234410653546
 20
0.1333210117827308
 10
0.2505986869413972
 20
0.1334991260306069
 10
0.2500584483335801
 20
0.1337364463346571
 10
0.2495987194534841
 20
0.1340649292946017
 10
0.2491842873574885
 20
0.1345381992865828
 10
0.2488090568133554
 20
0.1351045856786524
 10
0.2484608591974435
 20
0.1357810188385713
 10
0.2481275258853985
 20
0.1365844291346328
 10
0.2478987880774586
 20
0.1369718139505966
 10
0.2474257233815056
 20
0.1369718139505966
 10
0.246754785789677
 20
0.1369718139505966
 10
0.2461304067095851
 20
0.1369718139505966
 10
0.2457970166134986
 20
0.1369718139505966
 10
0.245786740581492
 20
0.1350628762706378
 10
0.245786740581492
 20
0.1289397442947511
 10
0.245786740581492
 20
0.1212396791426009
 10
0.245786740581492
 20
0.1147223139506392
 10
0.2457873960934425
 20
0.112139782622668
 10
0.2460592629096325
 20
0.112139782622668
 10
0.2466570374376564
 20
0.112139782622668
 10
0.2473362885816765
 20
0.112139782622668
 10
0.2478525861815655
 20
0.112139782622668
 10
0.248064687213442
 20
0.1123889102547437
 10
0.2483623938694874
 20
0.1131895949185786
 10
0.2487003351096115
 20
0.1138794262945817
 10
0.2490843306693424
 20
0.1144584050066726
 10
0.24952020059742
 20
0.1149265307427161
 10
0.2499886339655459
 20
0.1152742029506513
 10
0.250515836901454
 20
0.1155220526306193
 10
0.2511374663254662
 20
0.1156921038625684
 10
0.2518609291176421
 20
0.1157928218306434
 10
0.2526936327816065
 20
0.1158326714066771
 10
0.257669697069673
 20
0.115834118462697
 10
0.2743784583334099
 20
0.115834118462697
 10
0.2958611515654006
 20
0.115834118462697
 10
0.3144060403174205
 20
0.115834118462697
 10
0.322301389077662
 20
0.115834118462697
  0
LWPOLYLINE
  5
4CD
330
1F
100
AcDbEntity
  8
SSB-BLUE
370
     0
100
AcDbPolyline
 90
        2
 70
     1
 43
0.0
 10
0.2745606666453701
 20
0.3419122434627306
 10
0.2745606666453701
 20
0.3419122434627306
  0
LWPOLYLINE
  5
4CE
330
1F
100
AcDbEntity
  8
SSB-BLUE
370
     0
100
AcDbPolyline
 90
      100
 70
     1
 43
0.0
 10
0.2895093585334374
 20
0.3419122434627306
 10
0.3168293820693941
 20
0.3419122434627306
 10
0.3303790753174178
 20
0.3419118559586458
 10
0.3316369104934465
 20
0.3417917078787136
 10
0.3327441722856621
 20
0.3414755501666367
 10
0.3337090999895409
 20
0.3409751514626329
 10
0.3343184746776124
 20
0.3400986498627123
 10
0.3348385618296525
 20
0.3388856035345871
 10
0.3352177638214959
 20
0.3376466184626619
 10
0.3360179633254985
 20
0.3376466184626619
 10
0.33714308462147
 20
0.3376466184626619
 10
0.3375357640776615
 20
0.3381363854546935
 10
0.3375357640776615
 20
0.347913615254603
 10
0.3375357640776615
 20
0.3606811825347487
 10
0.3374701801174407
 20
0.3645924192146488
 10
0.3365744153256704
 20
0.3645924192146488
 10
0.3354836976455076
 20
0.3645924192146488
 10
0.3350498541576377
 20
0.364003145126647
 10
0.3345748925015259
 20
0.3625724560226207
 10
0.3340064166454546
 20
0.3615266535506194
 10
0.3332259321093849
 20
0.360880349606667
 10
0.3321739891656223
 20
0.3604465354466972
 10
0.3309926061576656
 20
0.3602087306067334
 10
0.3249859004136626
 20
0.3601744505426465
 10
0.2915755591893712
 20
0.3601744505426465
 10
0.2581652176536515
 20
0.3601744505426465
 10
0.2521057096536836
 20
0.3602087306067334
 10
0.2509468040613809
 20
0.3604465354466972
 10
0.2500544394455524
 20
0.360880349606667
 10
0.2493368834376222
 20
0.3615266535506194
 10
0.2487241559973929
 20
0.3625724560226207
 10
0.2481746962295475
 20
0.364003145126647
 10
0.247713681285644
 20
0.3645924192146488
 10
0.2466894707733775
 20
0.3645924192146488
 10
0.245848325637513
 20
0.3645924192146488
 10
0.245786740581492
 20
0.360062018534661
 10
0.245786740581492
 20
0.3452732959107188
 10
0.245786740581492
 20
0.3339482924545862
 10
0.2461554762215696
 20
0.3333809934625904
 10
0.2472119927734155
 20
0.3333809934625904
 10
0.247963399533397
 20
0.3333809934625904
 10
0.2485398903573373
 20
0.3348080412146768
 10
0.2495157018696075
 20
0.3359098436307377
 10
0.2508201336216116
 20
0.336327989462724
 10
0.2520321394295699
 20
0.3361681225346533
 10
0.2532584161173537
 20
0.3355573335507422
 10
0.2545192985973639
 20
0.3344525580866975
 10
0.2672933327015059
 20
0.3221805297987315
 10
0.2930499451416795
 20
0.297455301998724
 10
0.30714318606943
 20
0.2839264035507023
 10
0.2925826390294102
 20
0.2839264035507023
 10
0.2659719839974937
 20
0.2839264035507023
 10
0.2527637813014412
 20
0.2839268141425819
 10
0.2514545815655635
 20
0.2840543432065967
 10
0.2504457364296799
 20
0.2843910901106863
 10
0.2496618336214356
 20
0.2849309802147157
 10
0.2490014637813624
 20
0.2858296665746573
 10
0.2484286642295466
 20
0.287016819710642
 10
0.247963399533397
 20
0.2882682005427171
 10
0.2472119927734155
 20
0.2882682005427171
 10
0.2461554762215696
 20
0.2882682005427171
 10
0.245786740581492
 20
0.2877791258786724
 10
0.245786740581492
 20
0.2780157154946456
 10
0.245786740581492
 20
0.2652661942946652
 10
0.245848325637513
 20
0.2613604856307248
 10
0.2466894707733775
 20
0.2613604856307248
 10
0.247713681285644
 20
0.2613604856307248
 10
0.2481746962295475
 20
0.2618935887986282
 10
0.2487241559973929
 20
0.2632155799106215
 10
0.2493368834376222
 20
0.2642026106305764
 10
0.2500544394455524
 20
0.2648645498307207
 10
0.2509468040613809
 20
0.265339102454579
 10
0.2521057096536836
 20
0.2655753791186672
 10
0.2581652176536515
 20
0.265607067710711
 10
0.2915755591893712
 20
0.265607067710711
 10
0.3249859004136626
 20
0.265607067710711
 10
0.3309926061576656
 20
0.2655753791186672
 10
0.3321739891656223
 20
0.265339102454579
 10
0.3332259321093849
 20
0.2648645498307207
 10
0.3340064166454546
 20
0.2642026106305764
 10
0.3345748925015259
 20
0.2632155799106215
 10
0.3350498541576377
 20
0.2618935887986282
 10
0.3354836976455076
 20
0.2613604856307248
 10
0.3365744153256704
 20
0.2613604856307248
 10
0.3374701801174407
 20
0.2613604856307248
 10
0.3375357640776615
 20
0.265545370958737
 10
0.3375357640776615
 20
0.2792062167026579
 10
0.3375357640776615
 20
0.2896675071266257
 10
0.33714308462147
 20
0.2901915404546766
 10
0.3360179633254985
 20
0.2901915404546766
 10
0.3352177638214959
 20
0.2901915404546766
 10
0.334774287645482
 20
0.2888407536146609
 10
0.3338774920054099
 20
0.2877629096786638
 10
0.3324962196455399
 20
0.2873399287826288
 10
0.3313268423975986
 20
0.2876297087666515
 10
0.3297852223176356
 20
0.2886838709665991
 10
0.3277158024456206
 20
0.2905162606946883
 10
0.3147643236455782
 20
0.3030371557826834
 10
0.2887790329893356
 20
0.3281637369506321
 10
0.2745606666453701
 20
0.3419122434627306
  0
LWPOLYLINE
  5
4CF
330
1F
100
AcDbEntity
  8
SSB-BLUE
370
     0
100
AcDbPolyline
 90
        2
 70
     1
 43
0.0
 10
0.3043819554935592
 20
0.3985269897025834
 10
0.3043819554935592
 20
0.3985269897025834
  0
LWPOLYLINE
  5
4D0
330
1F
100
AcDbEntity
  8
SSB-BLUE
370
     0
100
AcDbPolyline
 90
      100
 70
     1
 43
0.0
 10
0.3043819554935592
 20
0.4061530727907173
 10
0.3043819554935592
 20
0.4183135835425685
 10
0.3044089331973669
 20
0.4217860427666018
 10
0.3046886711493926
 20
0.423159809030679
 10
0.3053048586695652
 20
0.4241609774066984
 10
0.3061902332376771
 20
0.4249206378146866
 10
0.3075310822533419
 20
0.4255609482387106
 10
0.3087047095656672
 20
0.4260161019507401
 10
0.3087047095656672
 20
0.4270478301026018
 10
0.3087047095656672
 20
0.4280399348787043
 10
0.304360091157446
 20
0.4281007199666363
 10
0.2925163836456219
 20
0.4281007199666363
 10
0.2873575416455809
 20
0.4280702971586186
 10
0.2873575416455809
 20
0.4271452467986885
 10
0.2873575416455809
 20
0.4260617038706976
 10
0.2884714399896309
 20
0.4256048834546338
 10
0.2898803599176016
 20
0.4249745320706353
 10
0.2907856266696171
 20
0.4242178927586906
 10
0.2913733310855804
 20
0.4232521232785969
 10
0.2916624711574931
 20
0.4219012434626049
 10
0.2916993383256399
 20
0.4170071933665965
 10
0.2916993383256399
 20
0.3942490572387402
 10
0.2916993383256399
 20
0.3778278582626466
 10
0.2923239320616595
 20
0.3777130247905891
 10
0.2934828314136712
 20
0.3777130247905891
 10
0.2939930181814869
 20
0.3783597371426932
 10
0.2946056298693786
 20
0.3798307722146124
 10
0.2953449316536112
 20
0.3808633449506971
 10
0.2962878845736272
 20
0.3815518927585817
 10
0.2975087767655315
 20
0.3818912236465888
 10
0.2990970848376335
 20
0.3819596068707538
 10
0.3074763568296346
 20
0.3819596068707538
 10
0.316539651381631
 20
0.3819596068707538
 10
0.3184864639895419
 20
0.3819089127985879
 10
0.3197585338536415
 20
0.3816019774947357
 10
0.3207265472375234
 20
0.3809595114625912
 10
0.3214822115496672
 20
0.3800037122547266
 10
0.3221459431896569
 20
0.3785416740146887
 10
0.3225976474294852
 20
0.3777130247905891
 10
0.3234521939015789
 20
0.3777130247905891
 10
0.3240147798214412
 20
0.3777130247905891
 10
0.3333001512933729
 20
0.3973242440545963
 10
0.3382404922054016
 20
0.4169077087346729
 10
0.3387453272373415
 20
0.4351259194466373
 10
0.335780259573391
 20
0.4502015943986413
 10
0.3296070999575251
 20
0.462734778542747
 10
0.318529518741447
 20
0.4741147707506715
 10
0.3040011204933899
 20
0.4806444549507472
 10
0.2868585372694126
 20
0.4818459494786645
 10
0.2718256200453322
 20
0.4781765867427179
 10
0.2595298345176573
 20
0.4696846587267265
 10
0.2506203709415704
 20
0.4572995397986804
 10
0.2455619311656525
 20
0.4420375771345828
 10
0.2442203439575001
 20
0.4259130417986725
 10
0.244484665989388
 20
0.4199583155667215
 10
0.2451791084134349
 20
0.4142425454546128
 10
0.2463740138134796
 20
0.4087441011266053
 10
0.2481873752856112
 20
0.402718320950708
 10
0.2505351665495565
 20
0.3961697270546684
 10
0.2516902894535686
 20
0.393012298286683
 10
0.2523362193095364
 20
0.3906160524867239
 10
0.2523738015815029
 20
0.3891450885506566
 10
0.2518682913813919
 20
0.3879557741907202
 10
0.2509069398215757
 20
0.3865382786306721
 10
0.2510645185415106
 20
0.3858571361426835
 10
0.2516097435333773
 20
0.3848400816626078
 10
0.252788506053526
 20
0.385034799302618
 10
0.2633669546615831
 20
0.3903032996307116
 10
0.2731470302133365
 20
0.3951741774866768
 10
0.2734409398294559
 20
0.3958384270466864
 10
0.2729122289974599
 20
0.3969064230146877
 10
0.2723386148136004
 20
0.3973661472146528
 10
0.2708693487814209
 20
0.3975200237425822
 10
0.2697957939095756
 20
0.3978087582147038
 10
0.2689971441094308
 20
0.3982568176706653
 10
0.2680743888214874
 20
0.3991062395426814
 10
0.2669196368856745
 20
0.4005132160225991
 10
0.2647125039575462
 20
0.4043860377026194
 10
0.2627351162855636
 20
0.4093964634865835
 10
0.2611492368215256
 20
0.41538473970272
 10
0.2601308600853516
 20
0.4212972938306914
 10
0.2597461946616786
 20
0.4269611596226257
 10
0.2608386704613395
 20
0.4371738141266066
 10
0.2643693083255165
 20
0.4462331849666344
 10
0.2706180792694761
 20
0.4540657175186081
 10
0.2793184791334857
 20
0.459495201734665
 10
0.2897911503814443
 20
0.4616790563426268
 10
0.3005072056535356
 20
0.4606585707987243
 10
0.3096043103976571
 20
0.4564793554465858
 10
0.3168281543496096
 20
0.4493778479426922
 10
0.3212516463576183
 20
0.4405249908386768
 10
0.3232151955815992
 20
0.4298470317027228
 10
0.3232233846454759
 20
0.4221549730946057
 10
0.3226393899096509
 20
0.4163076179186369
 10
0.3214500353015719
 20
0.4105400632947234
 10
0.3198453384936206
 20
0.405190527206651
 10
0.3178749960933995
 20
0.4004200465827151
 10
0.3153263111496676
 20
0.3985269897025834
 10
0.3086000925335739
 20
0.3985269897025834
 10
0.3043819554935592
 20
0.3985269897025834
  0
LWPOLYLINE
  5
4D1
330
1F
100
AcDbEntity
  8
SSB-BLUE
370
     0
100
AcDbPolyline
 90
        2
 70
     1
 43
0.0
 10
0.3302994360693585
 20
0.5199259154545715
 10
0.3302994360693585
 20
0.5199259154545715
  0
LWPOLYLINE
  5
4D2
330
1F
100
AcDbEntity
  8
SSB-BLUE
370
     0
100
AcDbPolyline
 90
      100
 70
     1
 43
0.0
 10
0.3249859004136626
 20
0.5199259154545715
 10
0.3115831020693385
 20
0.5199259154545715
 10
0.2938977524133905
 20
0.5199259154545715
 10
0.2757365640695957
 20
0.5199259154545715
 10
0.2609062484135451
 20
0.5199259154545715
 10
0.2532135180693631
 20
0.5199259154545715
 10
0.2523433026455457
 20
0.5199361162947014
 10
0.2517329451575785
 20
0.5199838426227537
 10
0.2511928463254165
 20
0.5200748589507418
 10
0.2507155181495051
 20
0.5202138449666922
 10
0.2502934723174395
 20
0.5204054812946915
 10
0.2499192208296641
 20
0.5206544476225901
 10
0.2495779162296401
 20
0.5209748812946718
 10
0.2492598322295052
 20
0.5213724862946663
 10
0.2489658502295109
 20
0.5218408762946823
 10
0.2486905882294685
 20
0.522382391294622
 10
0.2484286642295466
 20
0.5229993712947483
 10
0.2481746962295475
 20
0.5236941562946136
 10
0.2479759275814226
 20
0.5242677124465871
 10
0.2477574595655589
 20
0.5242677124465871
 10
0.2473362885816765
 20
0.5242677124465871
 10
0.2468205235654031
 20
0.5242677124465871
 10
0.2463182715816723
 20
0.5242677124465871
 10
0.2459376415653915
 20
0.5242677124465871
 10
0.245786740581492
 20
0.5242677124465871
 10
0.245786740581492
 20
0.5222321854467112
 10
0.245786740581492
 20
0.5170977964466541
 10
0.245786740581492
 20
0.5103228334467378
 10
0.245786740581492
 20
0.5033655844465815
 10
0.245786740581492
 20
0.4976843374466889
 10
0.245786740581492
 20
0.4947373804466757
 10
0.2458741561174644
 20
0.494598766958724
 10
0.2462074891173724
 20
0.494598766958724
 10
0.2466894707733775
 20
0.494598766958724
 10
0.2472119927734155
 20
0.494598766958724
 10
0.2476669471175645
 20
0.494598766958724
 10
0.24794622611733
 20
0.494598766958724
 10
0.2480914658615081
 20
0.4949913896306981
 10
0.2483175366935626
 20
0.4957181936306885
 10
0.2485664808695551
 20
0.496364735630678
 10
0.2488408727013622
 20
0.4969282076307487
 10
0.249143286189434
 20
0.4974058016306149
 10
0.2494762950213625
 20
0.4977947096307123
 10
0.2498322486454025
 20
0.4981067657905723
 10
0.2501957211575929
 20
0.4983887747907323
 10
0.2506051163254357
 20
0.4986111137907355
 10
0.2510679221495522
 20
0.4987775267907129
 10
0.2515916263173592
 20
0.4988917577906147
 10
0.2521837168294825
 20
0.4989575507905766
 10
0.2528516819976039
 20
0.4989786497907316
 10
0.2581652176536515
 20
0.4989786497907316
 10
0.2715680159976221
 20
0.4989786497907316
 10
0.2892533656535709
 20
0.4989786497907316
 10
0.3074145539973632
 20
0.4989786497907316
 10
0.3222448696534199
 20
0.4989786497907316
 10
0.3299375999975975
 20
0.4989786497907316
 10
0.3307673081495306
 20
0.498963841958588
 10
0.3313561591654306
 20
0.4988980296147237
 10
0.3319093254934469
 20
0.4987795669586302
 10
0.3324314868216112
 20
0.4986084546145886
 10
0.3329273231493746
 20
0.4983846919586732
 10
0.3334015141654749
 20
0.4981082796146313
 10
0.3337935421653899
 20
0.4977874899506265
 10
0.3340986978214051
 20
0.4974146596227218
 10
0.3343790491654666
 20
0.4969735012947023
 10
0.3346336608214662
 20
0.4964574629666983
 10
0.3348615961654486
 20
0.4958599929506118
 10
0.3350619198216602
 20
0.4951745386226439
 10
0.3352044220774895
 20
0.494598766958724
 10
0.3354370767333616
 20
0.494598766958724
 10
0.3358855960774649
 20
0.494598766958724
 10
0.3364348527335421
 20
0.494598766958724
 10
0.3369697180775031
 20
0.494598766958724
 10
0.3373750647334539
 20
0.494598766958724
 10
0.3375357640776615
 20
0.494598766958724
 10
0.3375357640776615
 20
0.4966342939585982
 10
0.3375357640776615
 20
0.5017686829586588
 10
0.3375357640776615
 20
0.5085436459585733
 10
0.3375357640776615
 20
0.5155008949587288
 10
0.3375357640776615
 20
0.5211821419586223
 10
0.3375357640776615
 20
0.5241290989586363
 10
0.3374426723253476
 20
0.5242677124465871
 10
0.3370876943255574
 20
0.5242677124465871
 10
0.3365744153256704
 20
0.5242677124465871
 10
0.3360179633254985
 20
0.5242677124465871
 10
0.3355334663255656
 20
0.5242677124465871
 10
0.3352360523253299
 20
0.5242677124465871
 10
0.3350991673175452
 20
0.5238802839507315
 10
0.3348934616614985
 20
0.5231656819586706
 10
0.3346657603175256
 20
0.5225294699667185
 10
0.3344169986613776
 20
0.5219693082865833
 10
0.3341481133173625
 20
0.5214828562946084
 10
0.3338600396615989
 20
0.5210677746146378
 10
0.333517228413335
 20
0.5207261954546781
 10
0.3330477173974007
 20
0.5204621654546778
 10
0.3325577310694872
 20
0.5202566354546239
 10
0.3320425897415706
 20
0.5201049254546933
 10
0.3314976134134886
 20
0.5200023554547313
 10
0.3309181223975637
 20
0.519944245454747
 10
0.3302994360693585
 20
0.5199259154545715
  0
LWPOLYLINE
  5
4D3
330
1F
100
AcDbEntity
  8
SSB-BLUE
370
     0
100
AcDbPolyline
 90
        2
 70
     1
 43
0.0
 10
0.2535943580616236
 20
0.5371978881986462
 10
0.2535943580616236
 20
0.5371978881986462
  0
LWPOLYLINE
  5
4D4
330
1F
100
AcDbEntity
  8
SSB-BLUE
370
     0
100
AcDbPolyline
 90
      100
 70
     1
 43
0.0
 10
0.2627370254134469
 20
0.5426154652466684
 10
0.2744918834374257
 20
0.5495809214065784
 10
0.2747612174373746
 20
0.5505814770146565
 10
0.2740359946535795
 20
0.5519851341267046
 10
0.273640653213592
 20
0.5521567350626873
 10
0.2731992465333981
 20
0.5521116176786407
 10
0.2722399095574879
 20
0.5522100149907124
 10
0.2700519009814402
 20
0.5537291654545769
 10
0.2672088081576076
 20
0.5580296748626577
 10
0.2618244909334635
 20
0.5718489501506668
 10
0.2597661470613675
 20
0.5876233194626926
 10
0.2600273774854616
 20
0.5958028527986823
 10
0.2610130868855549
 20
0.6022079388626365
 10
0.2623905431735549
 20
0.6067323553825946
 10
0.2642246489015854
 20
0.6100339705825846
 10
0.266572369653427
 20
0.6126264777986137
 10
0.2691554460455929
 20
0.6140551360946241
 10
0.2722934487573969
 20
0.6143091147027216
 10
0.2760280510054445
 20
0.6122326788866639
 10
0.2783883032374206
 20
0.6071807982866151
 10
0.2792534421095789
 20
0.6020428599747066
 10
0.2801729532213501
 20
0.5934563210786444
 10
0.2806990055016509
 20
0.5875722341427263
 10
0.2813774398293711
 20
0.5799456967826453
 10
0.2820338416534787
 20
0.5734443936626868
 10
0.2832737387015856
 20
0.5653686087507222
 10
0.284794774581445
 20
0.5589042445586827
 10
0.2867816819974225
 20
0.5532680210306236
 10
0.2894451651576908
 20
0.5482565350706255
 10
0.2928895237895137
 20
0.544100964326713
 10
0.2972130965493349
 20
0.5407783328065836
 10
0.3021354946534895
 20
0.538497837446597
 10
0.3074332081655156
 20
0.5374240782146043
 10
0.3148138271256036
 20
0.5380191542545792
 10
0.3224617667495799
 20
0.5414876142626213
 10
0.328942510317388
 20
0.5475743255427484
 10
0.3337619262695401
 20
0.5562904970066774
 10
0.3369248846134676
 20
0.5672260789106769
 10
0.3385161460773416
 20
0.5769498116305903
 10
0.3390211155814216
 20
0.5872808960306557
 10
0.3372239331816536
 20
0.6063491036306577
 10
0.3319087383093429
 20
0.6251431356145876
 10
0.3291580027895753
 20
0.6319397545346224
 10
0.3284801469096275
 20
0.6340653568707184
 10
0.328503743469442
 20
0.6351308181507083
 10
0.3291709308215589
 20
0.6365354393426684
 10
0.3299599523013725
 20
0.6378633865346331
 10
0.329255424165436
 20
0.6391941613827417
 10
0.3286715954135575
 20
0.6399085824145879
 10
0.3176929905814205
 20
0.6342503781746905
 10
0.306714386061425
 20
0.6285921742467533
 10
0.3068813069975951
 20
0.6276777356306163
 10
0.3074292732213451
 20
0.6262910457027218
 10
0.3077906849733356
 20
0.6261475949666373
 10
0.3081340153896459
 20
0.6261475949666373
 10
0.3094696274853552
 20
0.6260181027987013
 10
0.3120210829895802
 20
0.6247436283507391
 10
0.3146654062295822
 20
0.6217205046626564
 10
0.3178465794456278
 20
0.6154926754707067
 10
0.3205684789895837
 20
0.6069522826227383
 10
0.322528136325368
 20
0.5976653289987262
 10
0.3233043252453935
 20
0.5887103945427157
 10
0.32298317740538
 20
0.5798509436306976
 10
0.3214479595654627
 20
0.5720867397025789
 10
0.3194398854455871
 20
0.5670757108227136
 10
0.3174541346133672
 20
0.564124303142588
 10
0.3150422307813869
 20
0.5618293063346967
 10
0.3124933461576402
 20
0.560365106870707
 10
0.3097282951413804
 20
0.5599882607907407
 10
0.3062838719256025
 20
0.5614586303667064
 10
0.3038921919336319
 20
0.5652889947747113
 10
0.3025775961573576
 20
0.5702481027986864
 10
0.3014664318695521
 20
0.5784579553586174
 10
0.3008952640775035
 20
0.5845540949667454
 10
0.300225827517548
 20
0.5921808897265884
 10
0.2996647838134105
 20
0.598621516958704
 10
0.2987263770453445
 20
0.6067840665746438
 10
0.2978333450616199
 20
0.6121442147186418
 10
0.2965701821733946
 20
0.6167046226226818
 10
0.2948604711575724
 20
0.6212916381985734
 10
0.2915560922616569
 20
0.6270169399106163
 10
0.2870277554614819
 20
0.6316015774227238
 10
0.281865754149373
 20
0.6345922116146188
 10
0.2761378812455986
 20
0.6360308960306558
 10
0.2678114218055274
 20
0.635601238958742
 10
0.2590869595655976
 20
0.6316203538947516
 10
0.2514086629655798
 20
0.6228845158227366
 10
0.2457976334376424
 20
0.6077005949665653
 10
0.2442196400853511
 20
0.5890881235827444
 10
0.2446251196534606
 20
0.5801659665986083
 10
0.2457478525895036
 20
0.5718800830705906
 10
0.2478711080614859
 20
0.5631412669586764
 10
0.2512323979414077
 20
0.5526385816226283
 10
0.2533678226616631
 20
0.5463697053986483
 10
0.2540207419414271
 20
0.5439819456867215
 10
0.254055654741455
 20
0.542594360630682
 10
0.2534699621015681
 20
0.5408820144627438
 10
0.252631850229478
 20
0.5393265110066868
 10
0.2531732607094606
 20
0.5381291607746413
 10
0.2535943580616236
 20
0.5371978881986462
  0
LWPOLYLINE
  5
4D5
330
1F
100
AcDbEntity
  8
SSB-BLUE
370
     0
100
AcDbPolyline
 90
       12
 70
     1
 43
0.0
 10
0.3351934790063975
 20
0.2613604857325242
 10
0.3352480326049072
 20
0.2613604857325242
 10
0.3353976150530107
 20
0.2613604857325242
 10
0.33562110882814
 20
0.2613604857325242
 10
0.3358973964084386
 20
0.2613604857325242
 10
0.3362053602720572
 20
0.2613604857325242
 10
0.3365238828967776
 20
0.2613604857325242
 10
0.3368318467600355
 20
0.2613604857325242
 10
0.3371081343406912
 20
0.2613604857325242
 10
0.3373316281158205
 20
0.2613604857325242
 10
0.3374812105639249
 20
0.2613604857325242
 10
0.3375357641624355
 20
0.2613604857325242
  0
LWPOLYLINE
  5
4D6
330
1F
100
AcDbEntity
  8
SSB-BLUE
370
     0
100
AcDbPolyline
 90
      202
 70
     1
 43
0.0
 10
0.4040528006096995
 20
0.4435636106306884
 10
0.4040528006096995
 20
0.4560938841266769
 10
0.4021360501654217
 20
0.4560938841266769
 10
0.3906819769893586
 20
0.4560938841266769
 10
0.3898900551575686
 20
0.4561317921266017
 10
0.3892715054854072
 20
0.4562631906145933
 10
0.3887267681494215
 20
0.4564741341266459
 10
0.3882835721493531
 20
0.4567880426307127
 10
0.3879187074934149
 20
0.4572831195506684
 10
0.3876061568136402
 20
0.4578831822866487
 10
0.3873308701656457
 20
0.4585932465506018
 10
0.3871262446534587
 20
0.4588170285505928
 10
0.3866662224936279
 20
0.4588170285505928
 10
0.386182551981677
 20
0.4588170285505928
 10
0.3860001196535316
 20
0.4586498564545965
 10
0.3860001196535316
 20
0.4501698705507265
 10
0.3860001196535316
 20
0.4356304624466914
 10
0.3860001196535316
 20
0.424457399870704
 10
0.3860152126535325
 20
0.4209672861266265
 10
0.3861204539975489
 20
0.4176987850467127
 10
0.3863389223255522
 20
0.4148957321186728
 10
0.3866856666455129
 20
0.4125807005426818
 10
0.3872183576615526
 20
0.4105285255347209
 10
0.38793737164539
 20
0.4086236167106119
 10
0.388867789653518
 20
0.4068609580466252
 10
0.3899943071496219
 20
0.4051632381266935
 10
0.3913714554934051
 20
0.4035814505426583
 10
0.3930567528213249
 20
0.4022451071186684
 10
0.3950276249973319
 20
0.4011567157106973
 10
0.39711675515768
 20
0.4003514717905885
 10
0.3992252196453716
 20
0.3998107439667304
 10
0.4013895804935786
 20
0.399520118462604
 10
0.4051533899974178
 20
0.3995588529506886
 10
0.411587351661578
 20
0.4014627037826699
 10
0.4162089686613504
 20
0.4057980629666318
 10
0.4189881429815099
 20
0.4125749637985914
 10
0.4210754398295978
 20
0.4138084389506167
 10
0.4268326856616707
 20
0.4097518807825855
 10
0.4328858978133257
 20
0.4054867846225961
 10
0.4354979421573946
 20
0.4036433229506189
 10
0.4375326794854964
 20
0.4021590219506717
 10
0.4390958774856922
 20
0.4009384389506554
 10
0.4401825198213976
 20
0.3999615082945835
 10
0.4408585214853727
 20
0.3991690429585848
 10
0.4413545113175692
 20
0.3983184944546369
 10
0.4416813774934827
 20
0.3973557941186456
 10
0.441834103989371
 20
0.3962608762946322
 10
0.4420818173256116
 20
0.3962608762946322
 10
0.4425975486454572
 20
0.3962608762946322
 10
0.4430401839814984
 20
0.3962608762946322
 10
0.4431290259815662
 20
0.3970805380465787
 10
0.4431290259815662
 20
0.4035203606306528
 10
0.4431290259815662
 20
0.4119004453827469
 10
0.4431290259815662
 20
0.4167880582946211
 10
0.4429410653254982
 20
0.4168844113827453
 10
0.4424427379896177
 20
0.4168844113827453
 10
0.441968775981434
 20
0.4168844113827453
 10
0.4417741026454172
 20
0.4165636048707038
 10
0.4414800984935159
 20
0.4156448659587513
 10
0.4410477859893458
 20
0.4150493250387282
 10
0.4404671321493732
 20
0.4147845066146268
 10
0.4399110689014876
 20
0.4148486419586668
 10
0.4391079624934405
 20
0.4152223789587035
 10
0.4379515600776945
 20
0.4159092809666145
 10
0.4365954339814984
 20
0.4168053817826572
 10
0.432637505565384
 20
0.4195583306306414
 10
0.4258514166453687
 20
0.4242784154545945
 10
0.4206365279014106
 20
0.4279056469586236
 10
0.4199727759816377
 20
0.4294099087826285
 10
0.4199727759816377
 20
0.4346043649586182
 10
0.4199727759816377
 20
0.4406566214547354
 10
0.4199727759816377
 20
0.4435636106306884
 10
0.4235719056454342
 20
0.4435636106306884
 10
0.4310651753256432
 20
0.4435636106306884
 10
0.43749640698959
 20
0.4435636106306884
 10
0.4390792609894154
 20
0.4435546602867078
 10
0.4396927603174952
 20
0.4434667199666809
 10
0.440227430661393
 20
0.4432909934546263
 10
0.4407033379895751
 20
0.4430350046306133
 10
0.4410933819816849
 20
0.4426346087906925
 10
0.441407024661614
 20
0.4420928404466658
 10
0.4416683539896571
 20
0.4414457277986435
 10
0.4418576406455355
 20
0.4409356811186243
 10
0.4422167379814566
 20
0.4409356811186243
 10
0.4427463919894806
 20
0.4409356811186243
 10
0.4431054893254017
 20
0.4409356811186243
 10
0.4431290259815662
 20
0.4427953412066899
 10
0.4431290259815662
 20
0.449340200462677
 10
0.4431290259815662
 20
0.4562215152146063
 10
0.4431229759895574
 20
0.4588170285505928
 10
0.4428160899816112
 20
0.4588170285505928
 10
0.4422899166454553
 20
0.4588170285505928
 10
0.4418855693256454
 20
0.4588170285505928
 10
0.4416973603175789
 20
0.4583788538786653
 10
0.4414158289896522
 20
0.4577007306145991
 10
0.4410805509815266
 20
0.4571311755507317
 10
0.440691525981424
 20
0.4566651732867211
 10
0.4402701163175822
 20
0.4564066251265669
 10
0.4397670113254346
 20
0.4562168729667154
 10
0.4391721786453707
 20
0.4561109661265724
 10
0.4368663594934299
 20
0.4560938841266769
 10
0.4217746976616539
 20
0.4560938841266769
 10
0.4040528006096995
 20
0.4560938841266769
 10
0.4040528006096995
 20
0.4435636106306884
 10
0.4059254901574106
 20
0.4435636106306884
 10
0.4076596332695006
 20
0.4435636106306884
 10
0.4090600078295337
 20
0.4435636106306884
 10
0.4099960097014215
 20
0.4435636106306884
 10
0.4103370338133612
 20
0.4435636106306884
 10
0.4103370338133612
 20
0.4419249782065853
 10
0.4103370338133612
 20
0.4401280688065921
 10
0.4103370338133612
 20
0.4379028801266199
 10
0.4103370338133612
 20
0.435417000158596
 10
0.4103370338133612
 20
0.4328380159585717
 10
0.4103370338133612
 20
0.4303335152066837
 10
0.4103370338133612
 20
0.4280710849586225
 10
0.4103370338133612
 20
0.4262183128947079
 10
0.4103370338133612
 20
0.4249427863825961
 10
0.4103370338133612
 20
0.4244120931026023
 10
0.4103369558134756
 20
0.4237419314546518
 10
0.410336285325613
 20
0.4230242862146359
 10
0.410334356229372
 20
0.4223403472707137
 10
0.4103305020936219
 20
0.4216922802146393
 10
0.4103240564854751
 20
0.4210822509506791
 10
0.4103143532855782
 20
0.4205124247586287
 10
0.4103007260614016
 20
0.419984967230608
 10
0.4102825080696722
 20
0.4195020442707023
 10
0.4102590338135581
 20
0.4190658217826258
 10
0.4102296359255169
 20
0.4186784647345823
 10
0.4101936489094316
 20
0.4183421393426077
 10
0.4101350219254849
 20
0.4180250637267334
 10
0.4100662274855172
 20
0.4177110712946366
 10
0.4099918797575386
 20
0.4174039275746129
 10
0.4099119793654742
 20
0.4171027992146437
 10
0.4098265259975369
 20
0.4168068537985903
 10
0.4097355196533688
 20
0.4165152582865784
 10
0.409638960333691
 20
0.4162271793265866
 10
0.4095368480374271
 20
0.4159417845026523
 10
0.40942918307743
 20
0.4156582407747269
 10
0.4093159648294229
 20
0.4153757147906028
 10
0.4091971939176827
 20
0.4150933741346883
 10
0.4089341797893687
 20
0.4146427019906529
 10
0.4085645927015716
 20
0.4141469586386864
 10
0.4081513689816383
 20
0.413698461446673
 10
0.4076944250136725
 20
0.4132977932307238
 10
0.4071936778053491
 20
0.4129455374307032
 10
0.406649043741477
 20
0.4126422771746832
 10
0.4060604398293757
 20
0.4123885949666431
 10
0.4054277827656412
 20
0.4121850745585816
 10
0.4047509892454526
 20
0.4120322984546459
 10
0.4040299756536232
 20
0.4119308500947039
 10
0.4032646589974736
 20
0.4118813122946934
 10
0.4024643346933737
 20
0.4118842347985741
 10
0.4017024331894242
 20
0.4119395692466865
 10
0.400991489085377
 20
0.4120467496705924
 10
0.4003297529973527
 20
0.4122051926306121
 10
0.3997154761654071
 20
0.4124143156225877
 10
0.399146909205661
 20
0.4126735348947053
 10
0.398622302733532
 20
0.4129822682545879
 10
0.3981399079894299
 20
0.4133399319505964
 10
0.3976979755894749
 20
0.4137459431666164
 10
0.3972947561494431
 20
0.4141997187747464
 10
0.3969285009093841
 20
0.4147006756467331
 10
0.3966727158215901
 20
0.4151289739586517
 10
0.3965272898136787
 20
0.4154183249425989
 10
0.3963913592135899
 20
0.4157049730706835
 10
0.3962650906295462
 20
0.4159902518306753
 10
0.396148650981555
 20
0.4162754934626669
 10
0.3960422062535649
 20
0.4165620308306819
 10
0.3959459236773686
 20
0.4168511964866024
 10
0.3958599695494049
 20
0.4171443232946306
 10
0.3957845101654076
 20
0.4174427441186062
 10
0.3957197127575229
 20
0.4177477911986367
 10
0.3956657433093404
 20
0.4180607973987378
 10
0.3956223565895422
 20
0.4183767217347292
 10
0.3955843088136106
 20
0.4187161281265733
 10
0.3955499629175421
 20
0.4191039559826369
 10
0.3955193189013437
 20
0.4195390393587353
 10
0.3954923767653726
 20
0.4200202119987111
 10
0.3954691368214078
 20
0.4205463079587269
 10
0.3954495987576649
 20
0.4211161609826349
 10
0.3954337625734334
 20
0.4217286048146365
 10
0.3954216282694265
 20
0.4223824735107158
 10
0.3954131961574276
 20
0.4230766011266898
 10
0.3954084659256525
 20
0.423809821406751
 10
0.3954073461575751
 20
0.4244290662147279
 10
0.3954073461575751
 20
0.4250507948546485
 10
0.3954073461575751
 20
0.4263987356306842
 10
0.3954073461575751
 20
0.4283053011746523
 10
0.3954073461575751
 20
0.430602904118727
 10
0.3954073461575751
 20
0.4331239567825822
 10
0.3954073461575751
 20
0.4357008717987459
 10
0.3954073461575751
 20
0.4381660621106463
 10
0.3954073461575751
 20
0.4403519400386689
 10
0.3954073461575751
 20
0.4420909182146318
 10
0.3954073461575751
 20
0.4432154089585687
 10
0.3954117952773446
 20
0.4435636106306884
 10
0.3958253774856022
 20
0.4435636106306884
 10
0.3968194260215449
 20
0.4435636106306884
 10
0.3982633358133665
 20
0.4435636106306884
 10
0.4000265017896317
 20
0.4435636106306884
 10
0.4019783198135274
 20
0.4435636106306884
  0
TEXT
  5
4D7
330
1F
100
AcDbEntity
  8
SSB-BLUE
370
     0
100
AcDbText
 10
1.999886526400562
 20
0.6388811970907227
 30
0.0
 40
0.06
  1
De-Embedding
 50
90.0
 71
     2
 72
     1
 11
1.969886526400562
 21
0.3593245804467937
 31
0.0
100
AcDbText
 73
     2
1001
ACAD
1000
ACAD_MTEXT_DEFINED_HEIGHT_BEGIN
1070
    46
1040
0.0613298429
1000
ACAD_MTEXT_DEFINED_HEIGHT_END
  0
TEXT
  5
4D8
330
1F
100
AcDbEntity
  8
SSB-BLUE
370
     0
100
AcDbText
 10
2.089349651036527
 20
0.6228954048768165
 30
0.0
 40
0.05
  1
Plug and Play Kit
 50
90.0
 71
     2
 72
     1
 11
2.064349651036527
 21
0.3569165508522598
 31
0.0
100
AcDbText
 73
     2
1001
ACAD
1000
ACAD_MTEXT_DEFINED_HEIGHT_BEGIN
1070
    46
1040
0.0613298429
1000
ACAD_MTEXT_DEFINED_HEIGHT_END
  0
LWPOLYLINE
  5
4D9
330
1F
100
AcDbEntity
  8
SSB-WHITE
370
     0
100
AcDbPolyline
 90
        4
 70
     1
 43
0.0
 10
0.4934999390580233
 20
0.6939999951725593
 10
1.868499939058022
 20
0.6939999951725593
 10
1.868499939058022
 20
0.3939999951725639
 10
0.4934999390580233
 20
0.3939999951725639
  0
LWPOLYLINE
  5
4DA
330
1F
100
AcDbEntity
  8
L01
  6
Continuous
370
     0
100
AcDbPolyline
 90
        8
 70
     1
 43
0.0
 10
-0.0000000077008444
 20
0.343499995172694
 10
-0.0000000077008737
 20
0.343499995172694
 10
0.0199999922991081
 20
0.3419999951726167
 10
0.0299999922990999
 20
0.321999995172634
 10
0.0299999922990999
 20
0.2894999828972668
 10
0.2059999840142721
 20
0.2894999828971567
 10
0.2059999840142721
 20
0.1044999951725334
 10
-0.000000007700903
 20
0.1044999951725334
  0
LWPOLYLINE
  5
4DB
330
1F
100
AcDbEntity
  8
L01
  6
Continuous
370
     0
100
AcDbPolyline
 90
        8
 70
     1
 43
0.0
 10
-0.0000000077008444
 20
0.3654999951724012
 10
-0.0000000077008737
 20
0.3654999951724012
 10
0.0199999922991081
 20
0.3669999951724785
 10
0.0299999922990999
 20
0.3869999951724603
 10
0.0299999922990999
 20
0.4195000074478248
 10
0.2059999840142721
 20
0.4195000074479367
 10
0.2059999840142721
 20
0.604499995172569
 10
-0.000000007700903
 20
0.604499995172569
  0
LWPOLYLINE
  5
4DC
330
1F
100
AcDbEntity
  8
L01
  6
Continuous
370
     0
100
AcDbPolyline
 90
        8
 70
     1
 43
0.0
 10
2.361999992299097
 20
0.343499995172694
 10
2.361999792011358
 20
0.343499995172694
 10
2.341999792011375
 20
0.3419999951726167
 10
2.331999792011384
 20
0.321999995172634
 10
2.331999792011384
 20
0.2894999828972668
 10
2.15599980029621
 20
0.2894999828971567
 10
2.15599980029621
 20
0.1044999951725334
 10
2.361999992299152
 20
0.1044999951725334
  0
LWPOLYLINE
  5
4DD
330
1F
100
AcDbEntity
  8
L01
  6
Continuous
370
     0
100
AcDbPolyline
 90
        8
 70
     1
 43
0.0
 10
2.361999992299097
 20
0.3654999951724012
 10
2.361999792011358
 20
0.3654999951724012
 10
2.341999792011375
 20
0.3669999951724785
 10
2.331999792011384
 20
0.3869999951724603
 10
2.331999792011384
 20
0.4195000074478248
 10
2.15599980029621
 20
0.4195000074479367
 10
2.15599980029621
 20
0.604499995172569
 10
2.361999992299152
 20
0.604499995172569
  0
TEXT
  5
4DE
330
1F
100
AcDbEntity
  8
FAB
370
     0
100
AcDbText
 10
1.568424695502972
 20
0.0359920334609857
 30
0.0
 40
0.05
  1
907-000-10141
 72
     1
 11
1.805344886498879
 21
0.0609920334609857
 31
0.0
100
AcDbText
 73
     2
1001
ACAD
1000
ACAD_MTEXT_DEFINED_HEIGHT_BEGIN
1070
    46
1040
0.0613298429
1000
ACAD_MTEXT_DEFINED_HEIGHT_END
  0
ENDSEC
  0
SECTION
  2
OBJECTS
  0
DICTIONARY
  5
C
330
0
100
AcDbDictionary
281
     1
  3
ACAD_CIP_PREVIOUS_PRODUCT_INFO
350
216
  3
ACAD_COLOR
350
6B
  3
ACAD_DETAILVIEWSTYLE
350
21B
  3
ACAD_GROUP
350
D
  3
ACAD_LAYOUT
350
1A
  3
ACAD_MATERIAL
350
6A
  3
ACAD_MLEADERSTYLE
350
12D
  3
ACAD_MLINESTYLE
350
17
  3
ACAD_PLOTSETTINGS
350
19
  3
ACAD_PLOTSTYLENAME
350
E
  3
ACAD_SCALELIST
350
10C
  3
ACAD_SECTIONVIEWSTYLE
350
219
  3
ACAD_TABLESTYLE
350
7E
  3
ACAD_VISUALSTYLE
350
EF
  3
ACDB_RECOMPOSE_DATA
350
4E0
  3
AcDbVariableDictionary
350
5E
  3
DWGPROPS
350
4E1
  0
DICTIONARY
  5
1FF
330
2
100
AcDbDictionary
280
     1
281
     1
  3
ACAD_LAYERSTATES
360
200
  0
DICTIONARY
  5
13C
330
10
100
AcDbDictionary
280
     1
281
     1
  0
DICTIONARY
  5
232
330
231
100
AcDbDictionary
280
     1
281
     1
  0
DICTIONARY
  5
234
330
233
100
AcDbDictionary
280
     1
281
     1
  0
DICTIONARY
  5
236
330
235
100
AcDbDictionary
280
     1
281
     1
  0
DICTIONARY
  5
238
330
237
100
AcDbDictionary
280
     1
281
     1
  0
DICTIONARY
  5
23A
330
239
100
AcDbDictionary
280
     1
281
     1
  0
DICTIONARY
  5
23D
330
23C
100
AcDbDictionary
280
     1
281
     1
  0
DICTIONARY
  5
1CE
330
1F
100
AcDbDictionary
280
     1
281
     1
  0
XRECORD
  5
216
102
{ACAD_REACTORS
330
C
102
}
330
C
100
AcDbXrecord
280
     1
300
ACDLT
300
2013
300
ACDLT_F_S
  0
DICTIONARY
  5
6B
102
{ACAD_REACTORS
330
C
102
}
330
C
100
AcDbDictionary
281
     1
  0
DICTIONARY
  5
21B
102
{ACAD_REACTORS
330
C
102
}
330
C
100
AcDbDictionary
281
     1
  3
Metric50
350
21C
  0
DICTIONARY
  5
D
102
{ACAD_REACTORS
330
C
102
}
330
C
100
AcDbDictionary
281
     1
  0
DICTIONARY
  5
1A
102
{ACAD_REACTORS
330
C
102
}
330
C
100
AcDbDictionary
281
     1
  3
Layout1
350
D3
  3
Layout2
350
D7
  3
Model
350
22
  0
DICTIONARY
  5
6A
102
{ACAD_REACTORS
330
C
102
}
330
C
100
AcDbDictionary
281
     1
  3
ByBlock
350
ED
  3
ByLayer
350
EC
  3
Global
350
EE
  0
DICTIONARY
  5
12D
102
{ACAD_REACTORS
330
C
102
}
330
C
100
AcDbDictionary
281
     1
  3
Annotative
350
13B
  3
Standard
350
12E
  0
DICTIONARY
  5
17
102
{ACAD_REACTORS
330
C
102
}
330
C
100
AcDbDictionary
281
     1
  3
Standard
350
18
  0
DICTIONARY
  5
19
102
{ACAD_REACTORS
330
C
102
}
330
C
100
AcDbDictionary
281
     1
  0
ACDBDICTIONARYWDFLT
  5
E
102
{ACAD_REACTORS
330
C
102
}
330
C
100
AcDbDictionary
281
     1
  3
Normal
350
F
100
AcDbDictionaryWithDefault
340
F
  0
DICTIONARY
  5
10C
102
{ACAD_REACTORS
330
C
102
}
330
C
100
AcDbDictionary
281
     1
  3
A0
350
10D
  3
A1
350
1BE
  3
A2
350
1BF
  3
A3
350
1C0
  3
A4
350
1C1
  3
A5
350
1C2
  3
A6
350
1C3
  3
A7
350
1C4
  3
A8
350
1C5
  3
A9
350
1C6
  3
B0
350
1C7
  3
B1
350
1C8
  3
B2
350
1C9
  3
B3
350
1CA
  3
B4
350
1CB
  3
B5
350
1CC
  3
B6
350
1CD
  0
DICTIONARY
  5
219
102
{ACAD_REACTORS
330
C
102
}
330
C
100
AcDbDictionary
281
     1
  3
Metric50
350
21A
  0
DICTIONARY
  5
7E
102
{ACAD_REACTORS
330
C
102
}
330
C
100
AcDbDictionary
281
     1
  3
Standard
350
7F
  0
DICTIONARY
  5
EF
102
{ACAD_REACTORS
330
C
102
}
330
C
100
AcDbDictionary
281
     1
  3
2dWireframe
350
F5
  3
Basic
350
F4
  3
Brighten
350
FB
  3
ColorChange
350
FF
  3
Conceptual
350
F8
  3
Dim
350
FA
  3
EdgeColorOff
350
1E6
  3
Facepattern
350
FE
  3
Flat
350
F0
  3
FlatWithEdges
350
F1
  3
Gouraud
350
F2
  3
GouraudWithEdges
350
F3
  3
Hidden
350
F7
  3
JitterOff
350
1E4
  3
Linepattern
350
FD
  3
OverhangOff
350
1E5
  3
Realistic
350
F9
  3
Shaded
350
1F3
  3
Shaded with edges
350
1F2
  3
Shades of Gray
350
1EF
  3
Sketchy
350
1F0
  3
Thicken
350
FC
  3
Wireframe
350
F6
  3
X-Ray
350
1F1
  0
XRECORD
  5
4E0
102
{ACAD_REACTORS
330
C
102
}
330
C
100
AcDbXrecord
280
     1
 90
        1
330
7F
  0
DICTIONARY
  5
5E
102
{ACAD_REACTORS
330
C
102
}
330
C
100
AcDbDictionary
281
     1
  3
CANNOSCALE
350
146
  3
CMLEADERSTYLE
350
145
  3
CTABLESTYLE
350
84
  3
CVIEWDETAILSTYLE
350
227
  3
CVIEWSECTIONSTYLE
350
228
  3
DIMASSOC
350
5F
  3
HIDETEXT
350
63
  3
INDEXCTL
350
2E0
  3
LAYEREVAL
350
1AE
  3
LAYERNOTIFY
350
1AF
  3
LIGHTINGUNITS
350
2DE
  3
MSLTSCALE
350
2DD
  3
PSOLHEIGHT
350
407
  3
PSOLWIDTH
350
406
  3
SORTENTS
350
2DF
  3
XCLIPFRAME
350
408
  0
XRECORD
  5
4E1
102
{ACAD_REACTORS
330
C
102
}
330
C
100
AcDbXrecord
280
     1
  1
DWGPROPS COOKIE
  2

  3

  4

  6

  7

  8
Peter-EMMETT
  9

300
=
301
=
302
=
303
=
304
=
305
=
306
=
307
=
308
=
309
=
 40
0.0019868865740741
 41
2458166.469966319
 42
2458166.480171134
  1

 90
        0
  0
DICTIONARY
  5
200
102
{ACAD_REACTORS
330
1FF
102
}
330
1FF
100
AcDbDictionary
281
     1
  0
ACDBDETAILVIEWSTYLE
  5
21C
102
{ACAD_REACTORS
330
21B
102
}
330
21B
100
AcDbModelDocViewStyle
 70
     0
  3
Metric50
290
     0
100
AcDbDetailViewStyle
 70
     0
 71
     0
 90
        3
 71
     1
340
11
 40
5.0
340
0
 40
5.0
300

 40
0.0
280
     1
 71
     2
340
16
 90
       25
 71
     3
340
11
 40
5.0
 90
        0
 40
15.0
 90
        1
300
%<\AcVar ViewDetailId>% (%<\AcVar ViewScale \f "%sn">%)
 71
     4
340
16
 90
       25
340
16
 90
       25
280
     0
  0
LAYOUT
  5
D3
102
{ACAD_XDICTIONARY
360
4E5
102
}
102
{ACAD_REACTORS
330
1A
102
}
330
1A
100
AcDbPlotSettings
  1

  2
C:\Documents and Settings\basas\Application Data\Autodesk\AutoCAD 2005\R16.1\enu\plotters\Default Windows System Printer.pc3
  4

  6

 40
0.0
 41
0.0
 42
0.0
 43
0.0
 44
0.0
 45
0.0
 46
0.0
 47
0.0
 48
0.0
 49
0.0
140
0.0
141
0.0
142
1.0
143
1.0
 70
   688
 72
     0
 73
     0
 74
     5
  7

 75
    16
147
1.0
148
0.0
149
0.0
100
AcDbLayout
  1
Layout1
 70
     1
 71
     1
 10
0.0
 20
0.0
 11
12.0
 21
9.0
 12
0.0
 22
0.0
 32
0.0
 14
0.0
 24
0.0
 34
0.0
 15
0.0
 25
0.0
 35
0.0
146
0.0
 13
0.0
 23
0.0
 33
0.0
 16
1.0
 26
0.0
 36
0.0
 17
0.0
 27
1.0
 37
0.0
 76
     0
330
D2
  0
LAYOUT
  5
D7
102
{ACAD_XDICTIONARY
360
4E7
102
}
102
{ACAD_REACTORS
330
1A
102
}
330
1A
100
AcDbPlotSettings
  1

  2
C:\Documents and Settings\basas\Application Data\Autodesk\AutoCAD 2005\R16.1\enu\plotters\Default Windows System Printer.pc3
  4

  6

 40
0.0
 41
0.0
 42
0.0
 43
0.0
 44
0.0
 45
0.0
 46
0.0
 47
0.0
 48
0.0
 49
0.0
140
0.0
141
0.0
142
1.0
143
1.0
 70
   688
 72
     0
 73
     0
 74
     5
  7

 75
    16
147
1.0
148
0.0
149
0.0
100
AcDbLayout
  1
Layout2
 70
     1
 71
     2
 10
0.0
 20
0.0
 11
12.0
 21
9.0
 12
0.0
 22
0.0
 32
0.0
 14
0.0
 24
0.0
 34
0.0
 15
0.0
 25
0.0
 35
0.0
146
0.0
 13
0.0
 23
0.0
 33
0.0
 16
1.0
 26
0.0
 36
0.0
 17
0.0
 27
1.0
 37
0.0
 76
     0
330
D6
  0
LAYOUT
  5
22
102
{ACAD_XDICTIONARY
360
4E2
102
}
102
{ACAD_REACTORS
330
1A
102
}
330
1A
100
AcDbPlotSettings
  1

  2
none_device
  4
ISO_A4_(210.00_x_297.00_MM)
  6

 40
7.5
 41
20.0
 42
7.5
 43
20.0
 44
210.0
 45
297.0
 46
11.54999923706054
 47
-13.65000009536743
 48
0.0
 49
0.0
140
0.0
141
0.0
142
1.0
143
8.704084754739808
 70
 11952
 72
     1
 73
     0
 74
     0
  7

 75
     0
147
0.1148885871608098
148
0.0
149
0.0
100
AcDbLayout
  1
Model
 70
     1
 71
     0
 10
0.0
 20
0.0
 11
12.0
 21
9.0
 12
0.0
 22
0.0
 32
0.0
 14
0.0
 24
0.0
 34
0.0
 15
0.0
 25
0.0
 35
0.0
146
0.0
 13
0.0
 23
0.0
 33
0.0
 16
1.0
 26
0.0
 36
0.0
 17
0.0
 27
1.0
 37
0.0
 76
     0
330
1F
331
EA
1001
ACAD_PSEXT
1000
None
1000
None
1000
Not applicable
1000
The layout will not be plotted unless a new plotter configuration name is selected.
1070
     0
  0
MATERIAL
  5
ED
102
{ACAD_XDICTIONARY
360
1F9
102
}
102
{ACAD_REACTORS
330
6A
102
}
330
6A
100
AcDbMaterial
  1
ByBlock
  0
MATERIAL
  5
EC
102
{ACAD_XDICTIONARY
360
1F7
102
}
102
{ACAD_REACTORS
330
6A
102
}
330
6A
100
AcDbMaterial
  1
ByLayer
  0
MATERIAL
  5
EE
102
{ACAD_XDICTIONARY
360
173
102
}
102
{ACAD_REACTORS
330
6A
102
}
330
6A
100
AcDbMaterial
  1
Global
 43
0.0007999999797903
 43
0.0
 43
0.0
 43
0.0
 43
0.0
 43
0.0007999999797903
 43
0.0
 43
0.0
 43
0.0
 43
0.0
 43
1.0
 43
0.0
 43
0.0
 43
0.0
 43
0.0
 43
1.0
 49
0.0007999999797903
 49
0.0
 49
0.0
 49
0.0
 49
0.0
 49
0.0007999999797903
 49
0.0
 49
0.0
 49
0.0
 49
0.0
 49
1.0
 49
0.0
 49
0.0
 49
0.0
 49
0.0
 49
1.0
142
0.0007999999797903
142
0.0
142
0.0
142
0.0
142
0.0
142
0.0007999999797903
142
0.0
142
0.0
142
0.0
142
0.0
142
1.0
142
0.0
142
0.0
142
0.0
142
0.0
142
1.0
144
0.0007999999797903
144
0.0
144
0.0
144
0.0
144
0.0
144
0.0007999999797903
144
0.0
144
0.0
144
0.0
144
0.0
144
1.0
144
0.0
144
0.0
144
0.0
144
0.0
144
1.0
1001
ACAD
1070
    -1
1070
     3
1070
     0
1000

1071
        0
1070
     0
  0
MLEADERSTYLE
  5
13B
102
{ACAD_REACTORS
330
12D
102
}
330
12D
100
AcDbMLeaderStyle
170
     2
171
     1
172
     0
 90
        2
 40
0.0
 41
0.0
173
     1
 91
-1056964608
340
14
 92
       -2
290
     1
 42
2.0
291
     1
 43
8.0
  3
Standard
 44
4.0
300

342
11
174
     1
178
     1
175
     1
176
     0
 93
-1056964608
 45
4.0
292
     0
297
     0
 46
4.0
 94
-1056964608
 47
1.0
 49
1.0
140
1.0
293
     1
141
0.0
294
     1
177
     0
142
1.0
295
     0
296
     1
143
3.75
1001
ACAD_MLEADERVER
1070
     2
  0
MLEADERSTYLE
  5
12E
102
{ACAD_REACTORS
330
12D
102
}
330
12D
100
AcDbMLeaderStyle
170
     2
171
     1
172
     0
 90
        2
 40
0.0
 41
0.0
173
     1
 91
-1056964608
340
14
 92
       -2
290
     1
 42
2.0
291
     1
 43
8.0
  3
Standard
 44
4.0
300

342
11
174
     1
178
     1
175
     1
176
     0
 93
-1056964608
 45
4.0
292
     0
297
     0
 46
4.0
 94
-1056964608
 47
1.0
 49
1.0
140
1.0
293
     1
141
0.0
294
     1
177
     0
142
1.0
295
     0
296
     0
143
3.75
1001
ACAD_MLEADERVER
1070
     2
  0
MLINESTYLE
  5
18
102
{ACAD_REACTORS
330
17
102
}
330
17
100
AcDbMlineStyle
  2
STANDARD
 70
     0
  3

 62
   256
 51
90.0
 52
90.0
 71
     2
 49
0.5
 62
   256
  6
BYLAYER
 49
-0.5
 62
   256
  6
BYLAYER
  0
ACDBPLACEHOLDER
  5
F
102
{ACAD_REACTORS
330
E
102
}
330
E
  0
SCALE
  5
10D
102
{ACAD_REACTORS
330
10C
102
}
330
10C
100
AcDbScale
 70
     0
300
1:1
140
1.0
141
1.0
290
     1
  0
SCALE
  5
1BE
102
{ACAD_REACTORS
330
10C
102
}
330
10C
100
AcDbScale
 70
     0
300
1:2
140
1.0
141
2.0
290
     0
  0
SCALE
  5
1BF
102
{ACAD_REACTORS
330
10C
102
}
330
10C
100
AcDbScale
 70
     0
300
1:4
140
1.0
141
4.0
290
     0
  0
SCALE
  5
1C0
102
{ACAD_REACTORS
330
10C
102
}
330
10C
100
AcDbScale
 70
     0
300
1:5
140
1.0
141
5.0
290
     0
  0
SCALE
  5
1C1
102
{ACAD_REACTORS
330
10C
102
}
330
10C
100
AcDbScale
 70
     0
300
1:8
140
1.0
141
8.0
290
     0
  0
SCALE
  5
1C2
102
{ACAD_REACTORS
330
10C
102
}
330
10C
100
AcDbScale
 70
     0
300
1:10
140
1.0
141
10.0
290
     0
  0
SCALE
  5
1C3
102
{ACAD_REACTORS
330
10C
102
}
330
10C
100
AcDbScale
 70
     0
300
1:16
140
1.0
141
16.0
290
     0
  0
SCALE
  5
1C4
102
{ACAD_REACTORS
330
10C
102
}
330
10C
100
AcDbScale
 70
     0
300
1:20
140
1.0
141
20.0
290
     0
  0
SCALE
  5
1C5
102
{ACAD_REACTORS
330
10C
102
}
330
10C
100
AcDbScale
 70
     0
300
1:30
140
1.0
141
30.0
290
     0
  0
SCALE
  5
1C6
102
{ACAD_REACTORS
330
10C
102
}
330
10C
100
AcDbScale
 70
     0
300
1:40
140
1.0
141
40.0
290
     0
  0
SCALE
  5
1C7
102
{ACAD_REACTORS
330
10C
102
}
330
10C
100
AcDbScale
 70
     0
300
1:50
140
1.0
141
50.0
290
     0
  0
SCALE
  5
1C8
102
{ACAD_REACTORS
330
10C
102
}
330
10C
100
AcDbScale
 70
     0
300
1:100
140
1.0
141
100.0
290
     0
  0
SCALE
  5
1C9
102
{ACAD_REACTORS
330
10C
102
}
330
10C
100
AcDbScale
 70
     0
300
2:1
140
2.0
141
1.0
290
     0
  0
SCALE
  5
1CA
102
{ACAD_REACTORS
330
10C
102
}
330
10C
100
AcDbScale
 70
     0
300
4:1
140
4.0
141
1.0
290
     0
  0
SCALE
  5
1CB
102
{ACAD_REACTORS
330
10C
102
}
330
10C
100
AcDbScale
 70
     0
300
8:1
140
8.0
141
1.0
290
     0
  0
SCALE
  5
1CC
102
{ACAD_REACTORS
330
10C
102
}
330
10C
100
AcDbScale
 70
     0
300
10:1
140
10.0
141
1.0
290
     0
  0
SCALE
  5
1CD
102
{ACAD_REACTORS
330
10C
102
}
330
10C
100
AcDbScale
 70
     0
300
100:1
140
100.0
141
1.0
290
     0
  0
ACDBSECTIONVIEWSTYLE
  5
21A
102
{ACAD_REACTORS
330
219
102
}
330
219
100
AcDbModelDocViewStyle
 70
     0
  3
Metric50
290
     0
100
AcDbSectionViewStyle
 70
     0
 71
     0
 90
      102
 71
     1
340
11
 40
5.0
340
0
340
0
 40
5.0
300
I, O, Q, S, X, Z
 40
10.0
 90
        0
 40
2.5
 90
        0
 71
     2
340
16
 90
       25
340
16
 90
       50
 40
5.0
 40
2.5
 40
5.0
 71
     3
340
11
 40
5.0
 90
        0
 40
15.0
 90
        1
300
%<\AcVar ViewSectionStartId>%-%<\AcVar ViewSectionEndId>% (%<\AcVar ViewScale \f "%sn">%)
 71
     4
300
ANSI31
 40
1.0
 90
        0
290
     0
290
     0
 90
        6
 40
0.0
 40
1.570796326794896
 40
0.2617993877991494
 40
1.308996938995747
 40
-0.2617993877991494
 40
1.832595714594045
  0
TABLESTYLE
  5
7F
102
{ACAD_XDICTIONARY
360
162
102
}
102
{ACAD_REACTORS
330
7E
102
}
330
7E
100
AcDbTableStyle
  3
Standard
 70
     0
 71
     0
 40
1.5
 41
1.5
280
     0
281
     0
  7
Standard
140
4.5
170
     2
 62
     0
 63
     7
283
     0
274
    -2
284
     1
 64
     0
275
    -2
285
     1
 65
     0
276
    -2
286
     1
 66
     0
277
    -2
287
     1
 67
     0
278
    -2
288
     1
 68
     0
279
    -2
289
     1
 69
     0
  7
Standard
140
6.0
170
     5
 62
     0
 63
     7
283
     0
274
    -2
284
     1
 64
     0
275
    -2
285
     1
 65
     0
276
    -2
286
     1
 66
     0
277
    -2
287
     1
 67
     0
278
    -2
288
     1
 68
     0
279
    -2
289
     1
 69
     0
  7
Standard
140
4.5
170
     5
 62
     0
 63
     7
283
     0
274
    -2
284
     1
 64
     0
275
    -2
285
     1
 65
     0
276
    -2
286
     1
 66
     0
277
    -2
287
     1
 67
     0
278
    -2
288
     1
 68
     0
279
    -2
289
     1
 69
     0
  0
VISUALSTYLE
  5
F5
102
{ACAD_XDICTIONARY
360
4F3
102
}
102
{ACAD_REACTORS
330
EF
102
}
330
EF
100
AcDbVisualStyle
  2

 70
     4
 71
     0
 72
     2
 73
     1
 90
        0
 40
-0.6
 41
-30.0
 62
     5
 63
     7
 74
     1
 91
        4
 64
     7
 65
   257
 75
     1
175
     1
 42
1.0
 92
        0
 66
   257
 43
1.0
 76
     1
 77
     6
 78
     2
 67
     7
 79
     5
170
     0
171
     0
290
     0
174
     0
 93
        1
 44
0.0
173
     0
291
     0
 45
0.0
1001
ACAD
1000
AcDbSavedByObjectVersion
1070
     0
  0
VISUALSTYLE
  5
F4
102
{ACAD_XDICTIONARY
360
4F1
102
}
102
{ACAD_REACTORS
330
EF
102
}
330
EF
100
AcDbVisualStyle
  2

 70
     7
 71
     1
 72
     0
 73
     1
 90
        0
 40
-0.6
 41
-30.0
 62
     5
 63
     7
 74
     0
 91
        4
 64
     7
 65
   257
 75
     1
175
     1
 42
1.0
 92
        8
 66
     7
 43
1.0
 76
     1
 77
     6
 78
     2
 67
     7
 79
     5
170
     0
171
     0
290
     0
174
     0
 93
        1
 44
0.0
173
     0
291
     1
 45
0.0
1001
ACAD
1000
AcDbSavedByObjectVersion
1070
     0
  0
VISUALSTYLE
  5
FB
102
{ACAD_XDICTIONARY
360
4FF
102
}
102
{ACAD_REACTORS
330
EF
102
}
330
EF
100
AcDbVisualStyle
  2

 70
    12
 71
     2
 72
     2
 73
     1
 90
        0
 40
-0.6
 41
-30.0
 62
     5
 63
     7
 74
     1
 91
        4
 64
     7
 65
   257
 75
     1
175
     1
 42
1.0
 92
        8
 66
     7
 43
1.0
 76
     1
 77
     6
 78
     2
 67
     7
 79
     5
170
     0
171
     0
290
     0
174
     0
 93
        1
 44
50.0
173
     0
291
     1
 45
0.0
1001
ACAD
1000
AcDbSavedByObjectVersion
1070
     0
  0
VISUALSTYLE
  5
FF
102
{ACAD_XDICTIONARY
360
507
102
}
102
{ACAD_REACTORS
330
EF
102
}
330
EF
100
AcDbVisualStyle
  2

 70
    16
 71
     2
 72
     2
 73
     3
 90
        0
 40
-0.6
 41
-30.0
 62
     5
 63
     8
 74
     1
 91
        4
 64
     7
 65
   257
 75
     1
175
     1
 42
1.0
 92
        8
 66
     8
 43
1.0
 76
     1
 77
     6
 78
     2
 67
     7
 79
     5
170
     0
171
     0
290
     0
174
     0
 93
        1
 44
0.0
173
     0
291
     1
 45
0.0
1001
ACAD
1000
AcDbSavedByObjectVersion
1070
     0
  0
VISUALSTYLE
  5
F8
102
{ACAD_XDICTIONARY
360
4F9
102
}
102
{ACAD_REACTORS
330
EF
102
}
330
EF
100
AcDbVisualStyle
  2

 70
     9
 71
     3
 72
     2
 73
     1
 90
        0
 40
-0.6
 41
-30.0
 62
     5
 63
     7
 74
     2
 91
        2
 64
     7
 65
   257
 75
     1
175
     1
 42
40.0
 92
        8
 66
     7
 43
1.0
 76
     1
 77
     6
 78
     2
 67
     7
 79
     3
170
     0
171
     0
290
     0
174
     0
 93
        1
 44
0.0
173
     0
291
     0
 45
0.0
1001
ACAD
1000
AcDbSavedByObjectVersion
1070
     0
  0
VISUALSTYLE
  5
FA
102
{ACAD_XDICTIONARY
360
4FD
102
}
102
{ACAD_REACTORS
330
EF
102
}
330
EF
100
AcDbVisualStyle
  2

 70
    11
 71
     2
 72
     2
 73
     1
 90
        0
 40
-0.6
 41
-30.0
 62
     5
 63
     7
 74
     1
 91
        4
 64
     7
 65
   257
 75
     1
175
     1
 42
1.0
 92
        8
 66
     7
 43
1.0
 76
     1
 77
     6
 78
     2
 67
     7
 79
     5
170
     0
171
     0
290
     0
174
     0
 93
        1
 44
-50.0
173
     0
291
     1
 45
0.0
1001
ACAD
1000
AcDbSavedByObjectVersion
1070
     0
  0
VISUALSTYLE
  5
1E6
102
{ACAD_XDICTIONARY
360
50D
102
}
102
{ACAD_REACTORS
330
EF
102
}
330
EF
100
AcDbVisualStyle
  2

 70
    22
 71
     2
 72
     2
 73
     0
 90
        0
 40
-0.6
 41
-30.0
 62
     5
 63
     7
 74
     1
 91
        4
 64
     7
 65
   257
 75
     1
175
     1
 42
1.0
 92
        8
 66
     7
 43
1.0
 76
     1
 77
     6
 78
     2
 67
     7
 79
     5
170
     0
171
     0
290
     0
174
     0
 93
        1
 44
0.0
173
     0
291
     1
 45
0.0
1001
ACAD
1000
AcDbSavedByObjectVersion
1070
     0
  0
VISUALSTYLE
  5
FE
102
{ACAD_XDICTIONARY
360
505
102
}
102
{ACAD_REACTORS
330
EF
102
}
330
EF
100
AcDbVisualStyle
  2

 70
    15
 71
     2
 72
     2
 73
     1
 90
        0
 40
-0.6
 41
-30.0
 62
     5
 63
     7
 74
     1
 91
        4
 64
     7
 65
   257
 75
     1
175
     1
 42
1.0
 92
        8
 66
     7
 43
1.0
 76
     1
 77
     6
 78
     2
 67
     7
 79
     5
170
     0
171
     0
290
     0
174
     0
 93
        1
 44
0.0
173
     0
291
     1
 45
0.0
1001
ACAD
1000
AcDbSavedByObjectVersion
1070
     0
  0
VISUALSTYLE
  5
F0
102
{ACAD_XDICTIONARY
360
4E9
102
}
102
{ACAD_REACTORS
330
EF
102
}
330
EF
100
AcDbVisualStyle
  2

 70
     0
 71
     2
 72
     1
 73
     1
 90
        2
 40
-0.6
 41
30.0
 62
     5
 63
     7
 74
     0
 91
        0
 64
     7
 65
   257
 75
     1
175
     1
 42
1.0
 92
        8
 66
     7
 43
1.0
 76
     1
 77
     6
 78
     2
 67
     7
 79
     5
170
     0
171
     0
290
     0
174
     0
 93
       13
 44
0.0
173
     0
291
     1
 45
0.0
1001
ACAD
1000
AcDbSavedByObjectVersion
1070
     0
  0
VISUALSTYLE
  5
F1
102
{ACAD_XDICTIONARY
360
4EB
102
}
102
{ACAD_REACTORS
330
EF
102
}
330
EF
100
AcDbVisualStyle
  2

 70
     1
 71
     2
 72
     1
 73
     1
 90
        2
 40
-0.6
 41
30.0
 62
     5
 63
     7
 74
     1
 91
        0
 64
     7
 65
   257
 75
     1
175
     1
 42
1.0
 92
        0
 66
   257
 43
1.0
 76
     1
 77
     6
 78
     2
 67
     7
 79
     5
170
     0
171
     0
290
     0
174
     0
 93
       13
 44
0.0
173
     0
291
     1
 45
0.0
1001
ACAD
1000
AcDbSavedByObjectVersion
1070
     0
  0
VISUALSTYLE
  5
F2
102
{ACAD_XDICTIONARY
360
4ED
102
}
102
{ACAD_REACTORS
330
EF
102
}
330
EF
100
AcDbVisualStyle
  2

 70
     2
 71
     2
 72
     2
 73
     1
 90
        2
 40
-0.6
 41
30.0
 62
     5
 63
     7
 74
     0
 91
        0
 64
     7
 65
   257
 75
     1
175
     1
 42
1.0
 92
        0
 66
     7
 43
1.0
 76
     1
 77
     6
 78
     2
 67
     7
 79
     5
170
     0
171
     0
290
     0
174
     0
 93
       13
 44
0.0
173
     0
291
     1
 45
0.0
1001
ACAD
1000
AcDbSavedByObjectVersion
1070
     0
  0
VISUALSTYLE
  5
F3
102
{ACAD_XDICTIONARY
360
4EF
102
}
102
{ACAD_REACTORS
330
EF
102
}
330
EF
100
AcDbVisualStyle
  2

 70
     3
 71
     2
 72
     2
 73
     1
 90
        2
 40
-0.6
 41
30.0
 62
     5
 63
     7
 74
     1
 91
        0
 64
     7
 65
   257
 75
     1
175
     1
 42
1.0
 92
        0
 66
   257
 43
1.0
 76
     1
 77
     6
 78
     2
 67
     7
 79
     5
170
     0
171
     0
290
     0
174
     0
 93
       13
 44
0.0
173
     0
291
     1
 45
0.0
1001
ACAD
1000
AcDbSavedByObjectVersion
1070
     0
  0
VISUALSTYLE
  5
F7
102
{ACAD_XDICTIONARY
360
4F7
102
}
102
{ACAD_REACTORS
330
EF
102
}
330
EF
100
AcDbVisualStyle
  2

 70
     6
 71
     1
 72
     2
 73
     2
 90
        0
 40
-0.6
 41
-30.0
 62
     5
 63
     7
 74
     2
 91
        2
 64
     7
 65
   257
 75
     2
175
     1
 42
40.0
 92
        0
 66
   257
 43
1.0
 76
     1
 77
     6
 78
     2
 67
     7
 79
     3
170
     0
171
     0
290
     0
174
     0
 93
        1
 44
0.0
173
     0
291
     0
 45
0.0
1001
ACAD
1000
AcDbSavedByObjectVersion
1070
     0
  0
VISUALSTYLE
  5
1E4
102
{ACAD_XDICTIONARY
360
509
102
}
102
{ACAD_REACTORS
330
EF
102
}
330
EF
100
AcDbVisualStyle
  2

 70
    20
 71
     2
 72
     2
 73
     0
 90
        0
 40
-0.6
 41
-30.0
 62
     5
 63
     7
 74
     1
 91
        4
 64
     7
 65
   257
 75
     1
175
     1
 42
1.0
 92
       10
 66
     7
 43
1.0
 76
     1
 77
     6
 78
     2
 67
     7
 79
     5
170
     0
171
     0
290
     0
174
     0
 93
        1
 44
0.0
173
     0
291
     1
 45
0.0
1001
ACAD
1000
AcDbSavedByObjectVersion
1070
     0
  0
VISUALSTYLE
  5
FD
102
{ACAD_XDICTIONARY
360
503
102
}
102
{ACAD_REACTORS
330
EF
102
}
330
EF
100
AcDbVisualStyle
  2

 70
    14
 71
     2
 72
     2
 73
     1
 90
        0
 40
-0.6
 41
-30.0
 62
     5
 63
     7
 74
     1
 91
        4
 64
     7
 65
   257
 75
     7
175
     7
 42
1.0
 92
        8
 66
     7
 43
1.0
 76
     1
 77
     6
 78
     2
 67
     7
 79
     5
170
     0
171
     0
290
     0
174
     0
 93
        1
 44
0.0
173
     0
291
     1
 45
0.0
1001
ACAD
1000
AcDbSavedByObjectVersion
1070
     0
  0
VISUALSTYLE
  5
1E5
102
{ACAD_XDICTIONARY
360
50B
102
}
102
{ACAD_REACTORS
330
EF
102
}
330
EF
100
AcDbVisualStyle
  2

 70
    21
 71
     2
 72
     2
 73
     0
 90
        0
 40
-0.6
 41
-30.0
 62
     5
 63
     7
 74
     1
 91
        4
 64
     7
 65
   257
 75
     1
175
     1
 42
1.0
 92
        9
 66
     7
 43
1.0
 76
     1
 77
     6
 78
     2
 67
     7
 79
     5
170
     0
171
     0
290
     0
174
     0
 93
        1
 44
0.0
173
     0
291
     1
 45
0.0
1001
ACAD
1000
AcDbSavedByObjectVersion
1070
     0
  0
VISUALSTYLE
  5
F9
102
{ACAD_XDICTIONARY
360
4FB
102
}
102
{ACAD_REACTORS
330
EF
102
}
330
EF
100
AcDbVisualStyle
  2

 70
     8
 71
     2
 72
     3
 73
     0
 90
        2
 40
-0.6
 41
30.0
 62
     5
 63
     7
 74
     0
 91
        0
 64
     7
 65
   257
 75
     1
175
     1
 42
1.0
 92
        8
 66
   257
 43
1.0
 76
     1
 77
     6
 78
     2
 67
     7
 79
     3
170
     0
171
     0
290
     0
174
     0
 93
       13
 44
0.0
173
     0
291
     0
 45
0.0
1001
ACAD
1000
AcDbSavedByObjectVersion
1070
     0
  0
VISUALSTYLE
  5
1F3
102
{ACAD_XDICTIONARY
360
517
102
}
102
{ACAD_REACTORS
330
EF
102
}
330
EF
100
AcDbVisualStyle
  2

 70
    27
 71
     2
 72
     2
 73
     1
 90
        2
 40
-0.6
 41
30.0
 62
     5
 63
     7
 74
     0
 91
        4
 64
     7
 65
   257
 75
     1
175
     1
 42
1.0
 92
        8
 66
   257
 43
1.0
 76
     1
 77
     6
 78
     2
 67
     8
 79
     3
170
     0
171
     0
290
     0
174
     0
 93
        5
 44
0.0
173
     0
291
     0
 45
0.0
1001
ACAD
1000
AcDbSavedByObjectVersion
1070
     0
  0
VISUALSTYLE
  5
1F2
102
{ACAD_XDICTIONARY
360
515
102
}
102
{ACAD_REACTORS
330
EF
102
}
330
EF
100
AcDbVisualStyle
  2

 70
    26
 71
     2
 72
     2
 73
     1
 90
        2
 40
-0.6
 41
30.0
 62
     5
 63
     7
 74
     1
 91
       10
 64
     7
 65
   257
 75
     2
175
     1
 42
1.0
 92
        8
 66
   257
 43
1.0
 76
     1
 77
     6
 78
     2
 67
     7
 79
     3
170
     0
171
     0
290
     0
174
     0
 93
        5
 44
0.0
173
     0
291
     0
 45
0.0
1001
ACAD
1000
AcDbSavedByObjectVersion
1070
     0
  0
VISUALSTYLE
  5
1EF
102
{ACAD_XDICTIONARY
360
50F
102
}
102
{ACAD_REACTORS
330
EF
102
}
330
EF
100
AcDbVisualStyle
  2

 70
    23
 71
     2
 72
     2
 73
     3
 90
        0
 40
-0.6
 41
-30.0
 62
     5
 63
     7
 74
     2
 91
        2
 64
     7
 65
     7
 75
     1
175
     1
 42
40.0
 92
        8
 66
     7
 43
1.0
 76
     1
 77
     6
 78
     2
 67
     7
 79
     3
170
     0
171
     0
290
     0
174
     0
 93
        1
 44
0.0
173
     0
291
     0
 45
0.0
1001
ACAD
1000
AcDbSavedByObjectVersion
1070
     0
  0
VISUALSTYLE
  5
1F0
102
{ACAD_XDICTIONARY
360
511
102
}
102
{ACAD_REACTORS
330
EF
102
}
330
EF
100
AcDbVisualStyle
  2

 70
    24
 71
     1
 72
     2
 73
     2
 90
        0
 40
-0.6
 41
-30.0
 62
     5
 63
     7
 74
     2
 91
        2
 64
     7
 65
     7
 75
     1
175
     1
 42
40.0
 92
       11
 66
     7
 43
1.0
 76
     1
 77
     6
 78
     2
 67
     7
 79
     6
170
     0
171
     0
290
     0
174
     0
 93
        1
 44
0.0
173
     0
291
     0
 45
0.0
1001
ACAD
1000
AcDbSavedByObjectVersion
1070
     0
  0
VISUALSTYLE
  5
FC
102
{ACAD_XDICTIONARY
360
501
102
}
102
{ACAD_REACTORS
330
EF
102
}
330
EF
100
AcDbVisualStyle
  2

 70
    13
 71
     2
 72
     2
 73
     1
 90
        0
 40
-0.6
 41
-30.0
 62
     5
 63
     7
 74
     1
 91
        4
 64
     7
 65
   257
 75
     1
175
     1
 42
1.0
 92
       12
 66
     7
 43
1.0
 76
     1
 77
     6
 78
     2
 67
     7
 79
     5
170
     0
171
     0
290
     0
174
     0
 93
        1
 44
0.0
173
     0
291
     1
 45
0.0
1001
ACAD
1000
AcDbSavedByObjectVersion
1070
     0
  0
VISUALSTYLE
  5
F6
102
{ACAD_XDICTIONARY
360
4F5
102
}
102
{ACAD_REACTORS
330
EF
102
}
330
EF
100
AcDbVisualStyle
  2

 70
     5
 71
     0
 72
     2
 73
     0
 90
        0
 40
-0.6
 41
-30.0
 62
     5
 63
     7
 74
     1
 91
        4
 64
     7
 65
   257
 75
     1
175
     1
 42
1.0
 92
        0
 66
   257
 43
1.0
 76
     1
 77
     6
 78
     2
 67
     7
 79
     3
170
     0
171
     0
290
     0
174
     0
 93
        1
 44
0.0
173
     0
291
     0
 45
0.0
1001
ACAD
1000
AcDbSavedByObjectVersion
1070
     0
  0
VISUALSTYLE
  5
1F1
102
{ACAD_XDICTIONARY
360
513
102
}
102
{ACAD_REACTORS
330
EF
102
}
330
EF
100
AcDbVisualStyle
  2

 70
    25
 71
     2
 72
     2
 73
     1
 90
        1
 40
0.5
 41
-30.0
 62
     5
 63
     7
 74
     1
 91
        0
 64
     7
 65
   257
 75
     1
175
     1
 42
1.0
 92
        8
 66
     7
 43
1.0
 76
     1
 77
     6
 78
     2
 67
     7
 79
     3
170
     0
171
     0
290
     0
174
     0
 93
       13
 44
0.0
173
     0
291
     0
 45
0.0
1001
ACAD
1000
AcDbSavedByObjectVersion
1070
     0
  0
DICTIONARYVAR
  5
146
102
{ACAD_REACTORS
330
5E
102
}
330
5E
100
DictionaryVariables
280
     0
  1
1:1
  0
DICTIONARYVAR
  5
145
102
{ACAD_REACTORS
330
5E
102
}
330
5E
100
DictionaryVariables
280
     0
  1
STANDARD
  0
DICTIONARYVAR
  5
84
102
{ACAD_REACTORS
330
5E
102
}
330
5E
100
DictionaryVariables
280
     0
  1
STANDARD
  0
DICTIONARYVAR
  5
227
102
{ACAD_REACTORS
330
5E
102
}
330
5E
100
DictionaryVariables
280
     0
  1
Metric50
  0
DICTIONARYVAR
  5
228
102
{ACAD_REACTORS
330
5E
102
}
330
5E
100
DictionaryVariables
280
     0
  1
Metric50
  0
DICTIONARYVAR
  5
5F
102
{ACAD_REACTORS
330
5E
102
}
330
5E
100
DictionaryVariables
280
     0
  1
2
  0
DICTIONARYVAR
  5
63
102
{ACAD_REACTORS
330
5E
102
}
330
5E
100
DictionaryVariables
280
     0
  1
1
  0
DICTIONARYVAR
  5
2E0
102
{ACAD_REACTORS
330
5E
102
}
330
5E
100
DictionaryVariables
280
     0
  1
0
  0
DICTIONARYVAR
  5
1AE
102
{ACAD_REACTORS
330
5E
102
}
330
5E
100
DictionaryVariables
280
     0
  1
0
  0
DICTIONARYVAR
  5
1AF
102
{ACAD_REACTORS
330
5E
102
}
330
5E
100
DictionaryVariables
280
     0
  1
0
  0
DICTIONARYVAR
  5
2DE
102
{ACAD_REACTORS
330
5E
102
}
330
5E
100
DictionaryVariables
280
     0
  1
2
  0
DICTIONARYVAR
  5
2DD
102
{ACAD_REACTORS
330
5E
102
}
330
5E
100
DictionaryVariables
280
     0
  1
1
  0
DICTIONARYVAR
  5
407
102
{ACAD_REACTORS
330
5E
102
}
330
5E
100
DictionaryVariables
280
     0
  1
80.000000
  0
DICTIONARYVAR
  5
406
102
{ACAD_REACTORS
330
5E
102
}
330
5E
100
DictionaryVariables
280
     0
  1
5.000000
  0
DICTIONARYVAR
  5
2DF
102
{ACAD_REACTORS
330
5E
102
}
330
5E
100
DictionaryVariables
280
     0
  1
127
  0
DICTIONARYVAR
  5
408
102
{ACAD_REACTORS
330
5E
102
}
330
5E
100
DictionaryVariables
280
     0
  1
2
  0
DICTIONARY
  5
4E5
330
D3
100
AcDbDictionary
280
     1
281
     1
  3
ACAD_XREC_ROUNDTRIP
360
4E6
  0
DICTIONARY
  5
4E7
330
D7
100
AcDbDictionary
280
     1
281
     1
  3
ACAD_XREC_ROUNDTRIP
360
4E8
  0
DICTIONARY
  5
4E2
330
22
100
AcDbDictionary
280
     1
281
     1
  3
ACAD_XREC_ROUNDTRIP
360
4E3
  0
DICTIONARY
  5
1F9
330
ED
100
AcDbDictionary
280
     1
281
     1
  3
ACAD_XREC_ROUNDTRIP
360
33A
  3
FBXASSET
360
1FA
  0
DICTIONARY
  5
1F7
330
EC
100
AcDbDictionary
280
     1
281
     1
  3
ACAD_XREC_ROUNDTRIP
360
339
  3
FBXASSET
360
1F8
  0
DICTIONARY
  5
173
330
EE
100
AcDbDictionary
280
     1
281
     1
  3
ACAD_XREC_ROUNDTRIP
360
33B
  3
BUMPTILE
360
175
  3
DIFFUSETILE
360
174
  3
FBXASSET
360
1FB
  3
OPACITYTILE
360
176
  3
REFLECTIONTILE
360
177
  0
DICTIONARY
  5
162
330
7F
100
AcDbDictionary
280
     1
281
     1
  3
ACAD_ROUNDTRIP_2008_TABLESTYLE_CELLSTYLEMAP
360
4DF
  3
ACAD_XREC_ROUNDTRIP
360
4E4
  0
DICTIONARY
  5
4F3
330
F5
100
AcDbDictionary
280
     1
281
     1
  3
ACAD_XREC_ROUNDTRIP
360
4F4
  0
DICTIONARY
  5
4F1
330
F4
100
AcDbDictionary
280
     1
281
     1
  3
ACAD_XREC_ROUNDTRIP
360
4F2
  0
DICTIONARY
  5
4FF
330
FB
100
AcDbDictionary
280
     1
281
     1
  3
ACAD_XREC_ROUNDTRIP
360
500
  0
DICTIONARY
  5
507
330
FF
100
AcDbDictionary
280
     1
281
     1
  3
ACAD_XREC_ROUNDTRIP
360
508
  0
DICTIONARY
  5
4F9
330
F8
100
AcDbDictionary
280
     1
281
     1
  3
ACAD_XREC_ROUNDTRIP
360
4FA
  0
DICTIONARY
  5
4FD
330
FA
100
AcDbDictionary
280
     1
281
     1
  3
ACAD_XREC_ROUNDTRIP
360
4FE
  0
DICTIONARY
  5
50D
330
1E6
100
AcDbDictionary
280
     1
281
     1
  3
ACAD_XREC_ROUNDTRIP
360
50E
  0
DICTIONARY
  5
505
330
FE
100
AcDbDictionary
280
     1
281
     1
  3
ACAD_XREC_ROUNDTRIP
360
506
  0
DICTIONARY
  5
4E9
330
F0
100
AcDbDictionary
280
     1
281
     1
  3
ACAD_XREC_ROUNDTRIP
360
4EA
  0
DICTIONARY
  5
4EB
330
F1
100
AcDbDictionary
280
     1
281
     1
  3
ACAD_XREC_ROUNDTRIP
360
4EC
  0
DICTIONARY
  5
4ED
330
F2
100
AcDbDictionary
280
     1
281
     1
  3
ACAD_XREC_ROUNDTRIP
360
4EE
  0
DICTIONARY
  5
4EF
330
F3
100
AcDbDictionary
280
     1
281
     1
  3
ACAD_XREC_ROUNDTRIP
360
4F0
  0
DICTIONARY
  5
4F7
330
F7
100
AcDbDictionary
280
     1
281
     1
  3
ACAD_XREC_ROUNDTRIP
360
4F8
  0
DICTIONARY
  5
509
330
1E4
100
AcDbDictionary
280
     1
281
     1
  3
ACAD_XREC_ROUNDTRIP
360
50A
  0
DICTIONARY
  5
503
330
FD
100
AcDbDictionary
280
     1
281
     1
  3
ACAD_XREC_ROUNDTRIP
360
504
  0
DICTIONARY
  5
50B
330
1E5
100
AcDbDictionary
280
     1
281
     1
  3
ACAD_XREC_ROUNDTRIP
360
50C
  0
DICTIONARY
  5
4FB
330
F9
100
AcDbDictionary
280
     1
281
     1
  3
ACAD_XREC_ROUNDTRIP
360
4FC
  0
DICTIONARY
  5
517
330
1F3
100
AcDbDictionary
280
     1
281
     1
  3
ACAD_XREC_ROUNDTRIP
360
518
  0
DICTIONARY
  5
515
330
1F2
100
AcDbDictionary
280
     1
281
     1
  3
ACAD_XREC_ROUNDTRIP
360
516
  0
DICTIONARY
  5
50F
330
1EF
100
AcDbDictionary
280
     1
281
     1
  3
ACAD_XREC_ROUNDTRIP
360
510
  0
DICTIONARY
  5
511
330
1F0
100
AcDbDictionary
280
     1
281
     1
  3
ACAD_XREC_ROUNDTRIP
360
512
  0
DICTIONARY
  5
501
330
FC
100
AcDbDictionary
280
     1
281
     1
  3
ACAD_XREC_ROUNDTRIP
360
502
  0
DICTIONARY
  5
4F5
330
F6
100
AcDbDictionary
280
     1
281
     1
  3
ACAD_XREC_ROUNDTRIP
360
4F6
  0
DICTIONARY
  5
513
330
1F1
100
AcDbDictionary
280
     1
281
     1
  3
ACAD_XREC_ROUNDTRIP
360
514
  0
XRECORD
  5
4E6
102
{ACAD_REACTORS
330
4E5
102
}
330
4E5
100
AcDbXrecord
280
     1
102
SHADEPLOT
 70
     0
102
SHADEPLOTRESLEVEL
 70
     2
102
SHADEPLOTCUSTOMDPI
 70
   300
  0
XRECORD
  5
4E8
102
{ACAD_REACTORS
330
4E7
102
}
330
4E7
100
AcDbXrecord
280
     1
102
SHADEPLOT
 70
     0
102
SHADEPLOTRESLEVEL
 70
     2
102
SHADEPLOTCUSTOMDPI
 70
   300
  0
XRECORD
  5
4E3
102
{ACAD_REACTORS
330
4E2
102
}
330
4E2
100
AcDbXrecord
280
     1
102
SHADEPLOT
 70
     0
102
SHADEPLOTRESLEVEL
 70
     2
102
SHADEPLOTCUSTOMDPI
 70
   300
  0
XRECORD
  5
33A
102
{ACAD_REACTORS
330
1F9
102
}
330
1F9
100
AcDbXrecord
280
     1
102
MATERIAL
148
0.0
149
0.0
149
0.0
 93
        0
 94
      127
282
     0
 72
     1
 77
     1
171
     1
175
     1
179
     1
273
     0
  0
XRECORD
  5
1FA
102
{ACAD_REACTORS
330
1F9
102
}
330
1F9
100
AcDbXrecord
280
     1
 70
     1
 90
429727718
  1
D62C5603-E3A1-4AEA-B7FB-FE5D8D0755AF
310
504B03040A0000080000CC70623B3DEE336E79000000790000001B0000006175746F6465736B2D64657369676E2D7061636B6167652E786D6C3C3F786D6C2076657273696F6E3D22312E302220656E636F64696E673D227574662D3822203F3E3C666F726D6174733E3C666F726D61743E687474703A2F2F736368656D612E
310
6175746F6465736B2E636F6D2F64657369676E2D7061636B6167652F323030393C2F666F726D61743E3C2F666F726D6174733E504B0304140006080800CC70623BD486FD9CA0000000F4000000130000005B436F6E74656E745F54797065735D2E786D6C7D8EC10E82300C865F65E91D8A1E8C310C0EEA1BF002731658846E
310
D98AC1B77784ABF1D8FE5FBFBF75BBCE937A534CCEB38643598122B6FEE978D0B0485F9C41B54DDD7D022595594E1A469170414C76A4D9A4D207E29CF43ECE46F218070CC6BECC4078ACAA135ACF422C856C0E68EA1BF5669944DDD7BCDE7B1F8E415D77AECB980613C2E4AC91FC167A2B244592486606FC29C8FD7F045B9A
310
EF7053A7E60B504B0304140006080800CC70623B853B8169EB0000007C01000008000000636F72652E786D6C8D90416EC3201045AF62CDB6C206821CC7C244919D9CA01740401C94182C03558F5F9C3852BBEB6A467FFE9B197D7EFC9E1EC5975982F5AE035262288C535E5B377690E21535501C055FBC8FBF6C503839990E
310
5619041F179FE64D52DE45E362569DD7661365082642A11EB9E920A89B99642953CC8E702F67A9EE7234257977194EC9EAE275C4EABCCF5EAD5940D4AC6F0E35A568B8F43562CD7046CD199FD07E60174276A7BE677B5EADB0E0D14EEFFB6A31321A0D82627C4084204C3F096B71DD52F6819B16635EADF63F509AF53FA164
310
5DDCD1EDDD17164090FCC8732078B56691CB33A85CD7DCC40F504B0304140006080800CC70623B55019EA25F0000007C00000007000000636E782E786D6C4DCB3B0E80201045D1AD90E915ED2CF8AC45050C11660C8261F98AB1B07AC9C97D42D718D865D3E909258CFD00CCE24AC6E326A164D74DC0B4128928FF32603847
310
2BA13128B1252AC747C6BAB984FC68F0B87FE8960A5C09FE86CFB69FBA01504B0304140006080800CC70623BDBABAAF470010000D40300000C0000006662782F636F72652E786D6CC553D16E823014FD95A6AF4B694182CC941A83FA05FB810A9511A125A5257EFE2E82712ECEB8A7F100CD39F7F69E734AF9FADC366850B6
310
AF8DCE7018308C942E4C59EB2AC3DE1D498AD15A706B8CFB56869196ADCAF00863C12B6B7C374385D14E6907A836A59A41D9F7CA615434B0C8705F7CAA5606D23BA8E84F41278B93AC54100640439DE0BDB320004D43C63716C7C399D30917DCFBBA9CD9BA8469F5B156168B24CED3F7248AC8769F27244EB73B92EED8862C
310
B7F13E0C179B3C8F979C8ECD82BBBABDAA2BAC924E9558448CBD9330242CFA08E3154B5651FCC6D215639C8EE5774DBE2B5F6CF2B5768B68963BB5F5588420E442FC700B1139D4CB01F450C1E918227C2E09DF070D8140C84E1E9AAB8F1340832A9CB13130A5F1376A908D57309505ECF2A0DF179C4E9D30F5B239B87E3823
310
7A79C6F31DE1A8A5AEC08474B03C7837EAE4938639B44E5932B833D2C6B6B279CDC613877FA26EE21F4A2A4C63EC7F29A2F301D1F9F7A0E37D145F504B0304140006080800CC70623B9C113CC27E0000009D0000000B0000006662782F636E782E786D6C4DCCDF0A83201C86E15B91DFB94BFB330DD428C8FB886521330DA7
310
6397BF1A1DECE883878F57749FCDA1B7892F1BBC047A23808C7F84D9FA55424E0BE6803A256208E9EF06C84F9B91703228B1C690F78B66B34CD9A5439DF5CF0BFBF65E35BCA1B8D6A5C6F540381E886698B5741C695F9503EBA150A2F8958E3DC3EA0B504B0304140006080800CC70623B7DF2F77C2A010000120200003100
310
00006662782F41393633353835312D344632462D344230382D423046372D3739314545314133324237412F636F72652E786D6C8D51DB8EC22014FC15C2939B0D2DB4B45643319AE817EC0F6041255A68B86CFCFC856D4D76DF7CE190393373060EDB3DC707F856CE6B6B7A480A0C81328395DA5C7B18C3057510EC3873D686
310
3F34088C18550F330C39BB3A1BA7051AAC09CA84841A2BD5020AEF55806078A44B0FFD7053A328440C89E1EFC52486BBB8AA8214A99D789CF9E05200300FC927E4FB4D5B375D43103D5527440FB843077C5AA3F5861C8F645F5787F59E95B390B318B55CE45AA638FAA2957BD7248B390B7A7CC51F9C124149C82B8C378810
310
84AB2F42B7B8DD56F413775B8C5999E9FF4471926F8AA236A1AE96B8B3CC434E5839373893369E1FAF30EA395917409EB7F26AF8801C171837A4A6AC9C89E9F9C9B1A58BA30FD6A5EF5DDDCF894B9AD9B6A59C957943A9FCAE2FD5BC4DFE03504B0304140006080800CC70623BAD7543B64E01000033030000300000006662
310
782F41393633353835312D344632462D344230382D423046372D3739314545314133324237412F636E782E786D6CD593CD6EC32010845F0571AD6CE3D48AD20813A9873E410FBD12D82434182C7EAAE6EDBB2424CD25871E7B41D6EC30B3FA84F9E67BB2E40B4234DE8DB46F1925E094D7C6ED479AD3AE5951B2113C789FEE
310
6C943839C1488B4C05DF079FE72A69D8C96C13AAD6B8631503449F83828872B949AC57D26200B826A308D316B4064D6E46FCDA41C05550DC9E483A00797BFD207EFB092A45DE9514C1BBD22178396BD39D891265658C238DEA00936C654E5E433CB65A26D9F6EDB5EBC14EBF49A45CB856E66048291F6939A9A81BB5C89177
310
38143CA680F4AA299D66A042CEB3354A2684DC9D8D178FE0D9B8B41CAAD720F880EE7EF93C0C18769E099ECC04D5A102C8049A8A05632F4DDF376CF1DE0F6BB65C2F8627B65A33C6BB62177CEBBDAD973006829F89F22E814B54F4BC2BE347F8AA8F681390B50FA73F804400B5F542E796F19FF974E7F78DB802FE05E20750
310
4B0304140006080800CC70623BE75B7789680500003C100000340000006662782F41393633353835312D344632462D344230382D423046372D3739314545314133324237412F6F626A656374732E786D6CAD575B8F9B3818FD2B887D06C22499CB8AA1CA655245D5B455A356FB305264C061D8018C6C3393D95FBFC7600890
310
A4CD5EF210B0B1BFEBF98E3F7B1FF6596ABC522E1296DF9BAE3D320D9A872C4AF2F8DE2CE5CEBA358D0FBEC719939D65A691938CDE9B6ADAF4BD98B3B2D05311DD91329583D9D5FC0F438434A7A611A644887B5384CF34233629258BA878B12322891DEFF6B66BD70BFB62634E8AE781D082709A4B588AF91C528CDA28B73F
310
1C998EEF39EABBEFA97FBD6A7C7E9553F9D3D79FE442923C3C523610337627CB87ABE99D359D4CC6D6E4FACAB5E6ABF9D2726FC6A3C5F56271377BB88362213924694B38DD99FE47C48627A1E7D49F5A8BB5E1A74C0A599ED3B0F21F1E56366B89112D681E218F0915D0D6F17AD41FBA2A369DCF6335D62ABBD39779D5DDD1
310
11D4D8DE3CBB96B2E04FB8202E41051754A1AA8E8F76B4C6DFE810B580B1547F4B84911149794252234D024EF8BBE963A95AE27B3D310A9D5C215C7960FAEE415ED75694C6AFB17BCACA5D99A60A9AA65F217B0BFC53292ACB92BF283FAD0D3621576592CB5BED907C2FA8E9DF794E35E97BEA31BED21FEB401ABB94C44839
310
DCACBF0E1C5DA8DA5B2F4DFFD32AD86F543D9E565E7056502E157C00AD2671CD534549AB752FCA9CDA00677A313F04E51B22FF19E57B300579E3C97EB29F682D92935CEC18CF901B7B54FD8C51F362B56FC72FE0B3C1EAE335EDCCBF5AEC39ADB17DC238973F804BA5E6F6BFE7AF1FB32E523BE9F3BD571418E3631DCA4D48
310
5250CF639223210A9446CA30052EDF057BD35F8329C1ECD84552BF0DC8D18BE7BCE23BFE6BD960AB4A7DE79923A103BEBD80F911CBAA2C60DB19B01CF164A5583B772EE6D3FFA56666CBCDA74DC97724A48F9A58967497E489C4D979006FD7A05E227A1EBDD0F737C623387A9C844D3709995625106D157315F8B8392CD4E0
310
A0B9A720C4BE9829CEF37EA1E13111214D53925356365ADA634861B52519DD27A00AEB808EAF0628E6F435519D446F45CF2C9CF5214F0A15B2F6D06B79DA3EE3CBF7F56780D2F4E7EF73A0F5E5B02A38D07DC852C6B7C1FBB6664213E0C39E3EBA7FF4E1AD23EA2829407C85E586727488B751B2DB9502BC7B228A3FD68B6E
310
A65A22397E690AA8D158D7E404EC8CDA235CC3B7D1898680131CEC2CDF2638C65196279577750F15884AEE19F94199155B92B13297978469D4F8D358DF0AEF7631E28DC8F0D9F437D5D39A83B2231A1D52D543813A824EF8D44BCFF2FA6A31BD1E8DAD87F1CCB526B3879935BF59CDADD5C37479BB1CDD4CA7B3556B516589
310
EF352754B706114D9C885EC9131DE6EFEB43D99AFE2391C2F958179413D7CFEF6B1B6DB1E7600F00DE6E5C67454A339A4BA2E0FBA85ED26F045D454F463DBFCE484C2F90F2E5E3666003662ED8F755951A7D1BECD5B30B550B2785C8E7320B7292A4838DDA71BBC863ED7613CAF659337A3354231D4FF4A182A54904C2898C
310
98B28C4AD0CE056CCF332A80986E571EE9DBC305BB5FEB7E509220A58D25CF042D712A806AC0AD0C657FDEF80D2D9CEAA2EE4D1C76F60BFE74219A06527D6F82DF6412526107381E55E353090704D085B52408A8913C4ED159D79BDA71BB4BC506F4831350EB6F975CD22D69BF7AC49B91A2C0A9DDA3D5CA36AD20FC478E37
310
E61844E2352865EBCB61A275A65283CAAA9DD27703B4102F5AF51EF5F573B75CBB5AD38BC845F7A49F82A0966A49C2E3EA5EA0ECD326CD965F1DB402C6FA8B51A4658C5C5E2EC9E214602E55810345408596591009A82E7E7FFACA19EEA299B14A0081A705CB3296EBC14CDF658DCD336EA6D1136881AAEB87B81AB9EE53D5
310
F5EB8BC8362082DA24122F98680A4E7930C01A0079749CEA14382A0783E5EBA5A10F8C098456A03D6A4AEB6BB881E2513747552A5DB22C7EDAF83BD5528081A365F7FF06504B0304140006080000CC70623B000000000000000000000000350000006662782F41393633353835312D344632462D344230382D423046372D37
310
39314545314133324237412F76657274696365732E62696E504B0304140006080800CC70623BF270F1330600000004000000360000006662782F41393633353835312D344632462D344230382D423046372D3739314545314133324237412F747269616E676C65732E62696E636660600000504B0304140006080000CC7062
310
3B000000000000000000000000370000006662782F41393633353835312D344632462D344230382D423046372D3739314545314133324237412F617474726962757465732E62696E504B0304140006080800CC70623B08DA0BD19000000041010000360000006662782F41393633353835312D344632462D344230382D4230
310
46372D3739314545314133324237412F6469726563746F72792E786D6C858F410AC3201045AF22B36F53E9A60B35CBEEBAE80D244E44489C6234F4F835464A48035D0DF398FF9F8AF63D0E6CC63039F212F8F9020C7D47C6792B21C5FE7403D62A1188E2E60C98D7234A5830286103A55745067B9D86B8A3CF9C7F90C11DE6
310
07FB144396D7B6A82D282E9A152AD114D5EF2CB866EEE831B8EEA07A7BB5A8D7D61A2BAAEB7FD5F70921FF497D00504B0304140006080800CC70623BEDD1DC58FD000000A00100003B0000006662782F41393633353835312D344632462D344230382D423046372D3739314545314133324237412F7265736F75726365732F
310
636F72652E786D6C8D504B6E833010BD0A9A6D65B00922041947112427E8052C33A156828DFCA97AFC9A40A576D7CDCCE87D344F8F9FBFE667F689CE6B6B3A6039850C8DB2A336530731DC4903D95970676DF82583CCC8193B5861107C72362E3BA4AC096842428D1D7107A5F7182053CF7474E0D507CE32973124857FE48B
310
540F3961CEF244279DE03EB81420DB9EAC1384436FA353E879B1B182C7A8C75DA3C7F453DF353A1075D537A7BA6464B8F535A99AE14A9A2BBD90E350DD183B5CFABE3AF262350B1EF4FC9351399401471025A527C218A1E53BAB5A5AB765F5469B96525EACF23FA6B88CFF34456DC2A1DCE36E360F82A5202F42F062ED2BAD
310
579969AFDD8A6F504B010214000A0000080000CC70623B3DEE336E79000000790000001B00000000000000000000000000000000006175746F6465736B2D64657369676E2D7061636B6167652E786D6C504B01021400140006080800CC70623BD486FD9CA0000000F40000001300000000000000000000000000B20000005B
310
436F6E74656E745F54797065735D2E786D6C504B01021400140006080800CC70623B853B8169EB0000007C010000080000000000000000000000000083010000636F72652E786D6C504B01021400140006080800CC70623B55019EA25F0000007C000000070000000000000000000000000094020000636E782E786D6C504B
310
01021400140006080800CC70623BDBABAAF470010000D40300000C00000000000000000000000000180300006662782F636F72652E786D6C504B01021400140006080800CC70623B9C113CC27E0000009D0000000B00000000000000000000000000B20400006662782F636E782E786D6C504B01021400140006080800CC70
310
623B7DF2F77C2A010000120200003100000000000000000000000000590500006662782F41393633353835312D344632462D344230382D423046372D3739314545314133324237412F636F72652E786D6C504B01021400140006080800CC70623BAD7543B64E010000330300003000000000000000000000000000D2060000
310
6662782F41393633353835312D344632462D344230382D423046372D3739314545314133324237412F636E782E786D6C504B01021400140006080800CC70623BE75B7789680500003C10000034000000000000000000000000006E0800006662782F41393633353835312D344632462D344230382D423046372D3739314545
310
314133324237412F6F626A656374732E786D6C504B01021400140006080000CC70623B0000000000000000000000003500000000000000000000000000280E00006662782F41393633353835312D344632462D344230382D423046372D3739314545314133324237412F76657274696365732E62696E504B01021400140006
310
080800CC70623BF270F133060000000400000036000000000000000000000000007B0E00006662782F41393633353835312D344632462D344230382D423046372D3739314545314133324237412F747269616E676C65732E62696E504B01021400140006080000CC70623B0000000000000000000000003700000000000000
310
000000000000D50E00006662782F41393633353835312D344632462D344230382D423046372D3739314545314133324237412F617474726962757465732E62696E504B01021400140006080800CC70623B08DA0BD1900000004101000036000000000000000000000000002A0F00006662782F41393633353835312D344632
310
462D344230382D423046372D3739314545314133324237412F6469726563746F72792E786D6C504B01021400140006080800CC70623BEDD1DC58FD000000A00100003B000000000000000000000000000E1000006662782F41393633353835312D344632462D344230382D423046372D3739314545314133324237412F7265
310
736F75726365732F636F72652E786D6C504B0506000000000E000E0080040000641100000000
  0
XRECORD
  5
339
102
{ACAD_REACTORS
330
1F7
102
}
330
1F7
100
AcDbXrecord
280
     1
102
MATERIAL
148
0.0
149
0.0
149
0.0
 93
        0
 94
      127
282
     0
 72
     1
 77
     1
171
     1
175
     1
179
     1
273
     0
  0
XRECORD
  5
1F8
102
{ACAD_REACTORS
330
1F7
102
}
330
1F7
100
AcDbXrecord
280
     1
 70
     1
 90
429727718
  1
30362254-06B7-45E0-A893-8CFA70E3D6BC
310
504B03040A0000080000CC70623B3DEE336E79000000790000001B0000006175746F6465736B2D64657369676E2D7061636B6167652E786D6C3C3F786D6C2076657273696F6E3D22312E302220656E636F64696E673D227574662D3822203F3E3C666F726D6174733E3C666F726D61743E687474703A2F2F736368656D612E
310
6175746F6465736B2E636F6D2F64657369676E2D7061636B6167652F323030393C2F666F726D61743E3C2F666F726D6174733E504B0304140006080800CC70623BD486FD9CA0000000F4000000130000005B436F6E74656E745F54797065735D2E786D6C7D8EC10E82300C865F65E91D8A1E8C310C0EEA1BF002731658846E
310
D98AC1B77784ABF1D8FE5FBFBF75BBCE937A534CCEB38643598122B6FEE978D0B0485F9C41B54DDD7D022595594E1A469170414C76A4D9A4D207E29CF43ECE46F218070CC6BECC4078ACAA135ACF422C856C0E68EA1BF5669944DDD7BCDE7B1F8E415D77AECB980613C2E4AC91FC167A2B244592486606FC29C8FD7F045B9A
310
EF7053A7E60B504B0304140006080800CC70623B1EC5D7A3EB0000007C01000008000000636F72652E786D6C8D90416EC3201045AF82665B6103C6756C6122AB4D4ED00B204C5C94182C03558F5F9C3852BBEB6A467FFE9B197D71FC9E6FE8CBACC17AD7032D0820E3B41FAD9B7A48F1820F808E52ACDEC75F36404ECDA687
310
4D0629A6D5A76597B477D1B89855E747B38B2A041301E95B6E7A08FAD3CCAA50296647B8168BD2573599823EBB0CA76447F43862C7BCCF5EAC59410E4DDD9C7973C2755553CCCFA4C603E3040F1565ED3B1FDE4E432BCA0D9622DAF9795FAF464533826484B498524CD807E51D79ED187F21878E10516EF63F505AC67F42C9
310
BA58B1FDDD071640D2FCC87D2045B96591CB3DA85CB7DCE40F504B0304140006080800CC70623B55019EA25F0000007C00000007000000636E782E786D6C4DCB3B0E80201045D1AD90E915ED2CF8AC45050C11660C8261F98AB1B07AC9C97D42D718D865D3E909258CFD00CCE24AC6E326A164D74DC0B4128928FF32603847
310
2BA13128B1252AC747C6BAB984FC68F0B87FE8960A5C09FE86CFB69FBA01504B0304140006080800CC70623B8C9102E971010000D40300000C0000006662782F636F72652E786D6CC5535B6E833010BC8AE5DF0A6C08340F1947A84D4ED00B38C6A128602363A31CBFCB234A53A551FA553EC09AD9F5CE8C31DB9E9B1AF5CA
310
7695D1198E428A91D2D214952E33ECDD315861B4E5CC1AE3BE9561A445A3323CC098B3D21ADFCE9034DA29ED00D5A6503328BA4E398C640D8B0C77F253352214DE4145770A5B214FA2546114020D759C75CE8200340D19DE981F0F6746269C33EFAB6266AB02A655C74A59CCF365BADC27CB5D902ED22848F6340DF238A141
310
BE88E2F57B92BFEDF23523433367AE6A2EEAA455C2A902F398D2751045018D3FA264435F3771F242571B4A1919CA6F9A7C5B3CD9E42BED16F12C776AEB308F40C848FC700B1139D4891EF410CEC810227CC6846F8386402064270EF5C5C709A05E49676C024C61FC95EA45ED154CA5211D1FF4FB8291A913A68E9B83EBBB33
310
E2A7673CDE118E5AE8124C0807CB8377834E366998436B950D7A7746DAD846D4CFD978E0F04FD455FC5D49D2D4C6FE9722321F10997F0F32DC47FE05504B0304140006080800CC70623BFFEA85907E0000009D0000000B0000006662782F636E782E786D6C4DCCD10A83201886E15B91FFDC95D95A811AB6F23E625948A6C3
310
E9D8E5AF46073BFAE0E1E365ED67B3E8ADC3CB78C7815C7240DA3DFC64DCC221C519D7805AC182F7F1EF06C88D9BE6703008B6049F9E274D7A1E938DBB5AE3D6131B2589BA0D3D965551E0B2EA732C9B9A624AAEB41E3A557677029960D9AFB4EF11165F504B0304140006080800CC70623B4FEEA4082C0100001202000031
310
0000006662782F39464131463745442D413632322D343644302D413938332D3331353338454246344243312F636F72652E786D6C8D515B6EC32010BC0AE2AB55850DD871ED0813254D72825EC00192A2C460F1A872FC42ED48ED5F7E00CDCECCCEB26C731F6FE05B39AFADE921293004CA082BB5B9F43086336A21D870E6AC
310
0D7F68109861543DCC30E4ECE26C9C164858139409093556AA051CBC570102714B8F1E7AF1A5C6A11862480C7F2DA6415C878B2A4891CA89C7990F2E050073937C42DE1DB7E4F87ED8A36D4329AA9B3D46DBAEAD504556557BD81DEBDD0761E52CE42C462D17B996298E3E6BE59E35C962CE821E1FF18553435012728A7187
310
0841987E927A8D9B35ADDF70BBC6989599FE4F1427F9A4286A132ABAC49D651EF234CD5CE04CDA78BA3DC2A8FB645D00B9DF8B57E215725C60BCA2A463E54C4CE327C7A65E1C7DB02E7DEFCBF594B864C5CA6CDBD49C957943E9FA5D5FBAF336F90F504B0304140006080800CC70623BAD7543B64E01000033030000300000
310
006662782F39464131463745442D413632322D343644302D413938332D3331353338454246344243312F636E782E786D6CD593CD6EC32010845F0571AD6CE3D48AD20813A9873E410FBD12D82434182C7EAAE6EDBB2424CD25871E7B41D6EC30B3FA84F9E67BB2E40B4234DE8DB46F1925E094D7C6ED479AD3AE5951B2113C
310
789FEE6C943839C1488B4C05DF079FE72A69D8C96C13AAD6B8631503449F83828872B949AC57D26200B826A308D316B4064D6E46FCDA41C05550DC9E483A00797BFD207EFB092A45DE9514C1BBD22178396BD39D891265658C238DEA00936C654E5E433CB65A26D9F6EDB5EBC14EBF49A45CB856E66048291F6939A9A81BB5
310
C8917738143CA680F4AA299D66A042CEB3354A2684DC9D8D178FE0D9B8B41CAAD720F880EE7EF93C0C18769E099ECC04D5A102C8049A8A05632F4DDF376CF1DE0F6BB65C2F8627B65A33C6BB62177CEBBDAD973006829F89F22E814B54F4BC2BE347F8AA8F681390B50FA73F804400B5F542E796F19FF974E7F78DB802FE05
310
E207504B0304140006080800CC70623B16AB87BA640500003C100000340000006662782F39464131463745442D413632322D343644302D413938332D3331353338454246344243312F6F626A656374732E786D6CAD575B6FA33818FD2B887DE6924B3BED8A326A92B68A663B534DD4D13E548A0C38942D60649B369D5FBFC7
310
600890A493BDE42160637FD7F31D7FF63E6FB3D478A55C242CBF3247B66B1A340F5994E4F19559CA8D75611A9F7D8F33263BCB4C232719BD32D5B4E97B316765A1A722BA21652A07B3B7B33F0D11D29C9A46981221AE4C113ED38CD8A4942CA2E2C58E882476BCD9DA23BB5ED8171B73523C0F841684D35CC252CCE79062D4
310
468DFA43D7747CCF51DF7D4FFDEB5593E3AB9CCA9FBEFE241792E4E19EB28198C968BAB8199F5D5A67D3E9C49A9E8F47D6EC76B6B0469F26EEFC7C3EBFBCBEB98462213924694B38DD98FE1D62C393D073EA4FADC5DAF04326852CCF6958F90F0F2B9BB5C48816348F90C7840A68EB78EDF68723159BCEE7891A6B95DDE9D3
310
BCEAEEE8086A6C6F9E5D4B59F0175C10A7A0820BAA5055C7473B5AE3CFDD452D602CD5DF12616444529E90D448938013FE6EFA58AA96F85E4F8C42275708571E98FE6827AF6B2B4AE3D7D83D64E5A64C53054DD3AF90BD06FEA9149565C94FCA0F6B834DC85599E4F2423B24DF0B6AFA979E534DFA9E7A4CC6FA631D486393
310
921829879BF5D781A373557BCB85E97FB90DB62B558F8795179C15944B051F40AB495CF35451D26A4727654E6D8033BD98EF82F21D91FF8AF2DD9982BCF1643BDD4EB516C9492E368C67C88DED563FC36D5EACF66DFF057C3658BDBFA69DF9578B3DA735B64F18C7F20770A9D45CFCF7FCF563D6456A277DBEF78A02637CA2
310
43B90A490AEAB94F72244481D24819A6C0E59B606BFA4B3025981DBB48EAB701D97BF19C577CC77F2D1B6C55A9EF3C732474C0B727303F625995056C3B02963D9EAC146BE78EC5FCEC7FA999EBC5EACBAAE41B12D27B4D2C0BBA49F244E2ECDC81B76B502F113D8F5EE8FB1BE3111CDD4FC2AA9B844CAB1288B68AB90A7CDC
310
1C166AB0D3DC5310625FCC14E779BFD0709F8890A629C9292B1B2DED31A4B0DA928CEE135085754027E3018A397D4D5427D15BD1330B677DC8934285AC3DF45A9EB68FF8F2B8FC0A509AFEECFD0FF2DE25CC6047F7214B195F07EFEB9A094D800F7BFAE8FED187B78EA8A3A400F115961BCAD1215E47C966530AF0EE8128FE
310
58CEBB996A8964FFA529A046635D9353B0336A8F700DDF46271A024E70B0B37C9DE01847591E54DED53D54202AB947E4076556AC49C6CA5C9E1226B7F1A7B1BE15DEED62C41B91E1B3E9AFAAA735036547343A925075041DF0A9979E893B391F8FCFA6967B3EFB644DCF6E5CEBFAE272625DCC6FAF3FB93793C5F90CE1EF57
310
407342756B10D1C489E8953CD1617E5CEECAD6F4EF8914CE5D5D504E5C3F1F9736DA62CFC11E00BCDDB8CC8A9466349744C1F75EBDA4DF09BA8A9E8C7A7E9991989E20E5DBDD6A6003664ED8F7A04A8DBE0DF6EAD9B9AA858342E47399053949D2C146EDB85DE4B176BB0965FBAC19BD19AA918E27FA50C1D22402E144464C
310
59462568E704B6E71915404CB72B8FF4EDE184DDAF753F284990D2C6926782963815403548A70C657FDEF80D2D9CEAA2AE4C1C76F60BFE74219A06527D6582DF6412526107381E55E353090704D085B52408D0933C4ED159D79BDA71BB4BC506F4831350EB6F979CD22D69BF7AC49B91A2C0A9DDA3D5CA36AD20FC478E37E6
310
1844E2352865EBCB6EA275A652E3836BE04EFB400BF1A2556F515F1FBB35B2AB35BD889C744FFA1004B5544B121E57F70215746DD2F5E2C1412B602CBF19455AC6C8E5E9922C4E01E65215385004546899059180EAFCF7A707CE7017CD8CDB0410789AB32C63B91E5CEBBBACB17AC6CD347A022D5075FD106377347AAABA7E
310
7D11590744509B44E205134DC1290F06580320F78E537D3D73540E06CB970B431F185308AD40BBD794D6D77003C5A36E8EAA54BA64597CD8F83BD552A080A365F7FF06504B0304140006080000CC70623B000000000000000000000000350000006662782F39464131463745442D413632322D343644302D413938332D3331
310
353338454246344243312F76657274696365732E62696E504B0304140006080800CC70623BF270F1330600000004000000360000006662782F39464131463745442D413632322D343644302D413938332D3331353338454246344243312F747269616E676C65732E62696E636660600000504B0304140006080000CC70623B
310
000000000000000000000000370000006662782F39464131463745442D413632322D343644302D413938332D3331353338454246344243312F617474726962757465732E62696E504B0304140006080800CC70623B08DA0BD19000000041010000360000006662782F39464131463745442D413632322D343644302D413938
310
332D3331353338454246344243312F6469726563746F72792E786D6C858F410AC3201045AF22B36F53E9A60B35CBEEBAE80D244E44489C6234F4F835464A48035D0DF398FF9F8AF63D0E6CC63039F212F8F9020C7D47C6792B21C5FE7403D62A1188E2E60C98D7234A5830286103A55745067B9D86B8A3CF9C7F90C11DE607
310
FB144396D7B6A82D282E9A152AD114D5EF2CB866EEE831B8EEA07A7BB5A8D7D61A2BAAEB7FD5F70921FF497D00504B0304140006080800CC70623B0D6EF93BFE000000A00100003B0000006662782F39464131463745442D413632322D343644302D413938332D3331353338454246344243312F7265736F75726365732F63
310
6F72652E786D6C8D50596E833010BD0A9ADFCA60B334011947A8694ED00B586642AC041B79A97AFC9A40A5F6AF3F33A3B7689E1E3F7DCD8FEC139DD7D6F4C0720A191A65476DA61E62B892236427C19DB5E1970C322367EC618541F0C9D9B8EC90B226A009093576C41D94DE63804C3DD2D18357379C652E63480A7FCF17A9
310
EE72C29CE5894E3AC17D702940B63D59270887DE46A7D0F36263058F518FBB468FE9A7BE6A7420864373B8D4873369AA8691FA421B3294352543C5CAF65C0F6FEF43CB8BD52C78D0F34F46E550061C419494B6843142CB0F5677F4B52BEB177AEC28E5C52AFF638ACBF84F53D42654E51E77B379102C05791282176B5F693D
310
CB4C7BED567C03504B010214000A0000080000CC70623B3DEE336E79000000790000001B00000000000000000000000000000000006175746F6465736B2D64657369676E2D7061636B6167652E786D6C504B01021400140006080800CC70623BD486FD9CA0000000F40000001300000000000000000000000000B20000005B
310
436F6E74656E745F54797065735D2E786D6C504B01021400140006080800CC70623B1EC5D7A3EB0000007C010000080000000000000000000000000083010000636F72652E786D6C504B01021400140006080800CC70623B55019EA25F0000007C000000070000000000000000000000000094020000636E782E786D6C504B
310
01021400140006080800CC70623B8C9102E971010000D40300000C00000000000000000000000000180300006662782F636F72652E786D6C504B01021400140006080800CC70623BFFEA85907E0000009D0000000B00000000000000000000000000B30400006662782F636E782E786D6C504B01021400140006080800CC70
310
623B4FEEA4082C0100001202000031000000000000000000000000005A0500006662782F39464131463745442D413632322D343644302D413938332D3331353338454246344243312F636F72652E786D6C504B01021400140006080800CC70623BAD7543B64E010000330300003000000000000000000000000000D5060000
310
6662782F39464131463745442D413632322D343644302D413938332D3331353338454246344243312F636E782E786D6C504B01021400140006080800CC70623B16AB87BA640500003C1000003400000000000000000000000000710800006662782F39464131463745442D413632322D343644302D413938332D3331353338
310
454246344243312F6F626A656374732E786D6C504B01021400140006080000CC70623B0000000000000000000000003500000000000000000000000000270E00006662782F39464131463745442D413632322D343644302D413938332D3331353338454246344243312F76657274696365732E62696E504B01021400140006
310
080800CC70623BF270F133060000000400000036000000000000000000000000007A0E00006662782F39464131463745442D413632322D343644302D413938332D3331353338454246344243312F747269616E676C65732E62696E504B01021400140006080000CC70623B0000000000000000000000003700000000000000
310
000000000000D40E00006662782F39464131463745442D413632322D343644302D413938332D3331353338454246344243312F617474726962757465732E62696E504B01021400140006080800CC70623B08DA0BD190000000410100003600000000000000000000000000290F00006662782F39464131463745442D413632
310
322D343644302D413938332D3331353338454246344243312F6469726563746F72792E786D6C504B01021400140006080800CC70623B0D6EF93BFE000000A00100003B000000000000000000000000000D1000006662782F39464131463745442D413632322D343644302D413938332D3331353338454246344243312F7265
310
736F75726365732F636F72652E786D6C504B0506000000000E000E0080040000641100000000
  0
XRECORD
  5
33B
102
{ACAD_REACTORS
330
173
102
}
330
173
100
AcDbXrecord
280
     1
102
MATERIAL
148
0.0
149
0.0
149
0.0
 93
        0
 94
      127
282
     0
 72
     1
 77
     1
171
     1
175
     1
179
     1
273
     0
  0
XRECORD
  5
175
102
{ACAD_REACTORS
330
173
102
}
330
173
100
AcDbXrecord
280
     1
270
     1
271
     1
  0
XRECORD
  5
174
102
{ACAD_REACTORS
330
173
102
}
330
173
100
AcDbXrecord
280
     1
270
     1
271
     1
  0
XRECORD
  5
1FB
102
{ACAD_REACTORS
330
173
102
}
330
173
100
AcDbXrecord
280
     1
 70
     0
 90
1673772943
  1
ECE7A1D2-D628-4531-984C-D00F80459256
310
504B03040A0000080000CC70623B3DEE336E79000000790000001B0000006175746F6465736B2D64657369676E2D7061636B6167652E786D6C3C3F786D6C2076657273696F6E3D22312E302220656E636F64696E673D227574662D3822203F3E3C666F726D6174733E3C666F726D61743E687474703A2F2F736368656D612E
310
6175746F6465736B2E636F6D2F64657369676E2D7061636B6167652F323030393C2F666F726D61743E3C2F666F726D6174733E504B0304140006080800CC70623BD486FD9CA0000000F4000000130000005B436F6E74656E745F54797065735D2E786D6C7D8EC10E82300C865F65E91D8A1E8C310C0EEA1BF002731658846E
310
D98AC1B77784ABF1D8FE5FBFBF75BBCE937A534CCEB38643598122B6FEE978D0B0485F9C41B54DDD7D022595594E1A469170414C76A4D9A4D207E29CF43ECE46F218070CC6BECC4078ACAA135ACF422C856C0E68EA1BF5669944DDD7BCDE7B1F8E415D77AECB980613C2E4AC91FC167A2B244592486606FC29C8FD7F045B9A
310
EF7053A7E60B504B0304140006080800CC70623BD9DDAED0EC0000007C01000008000000636F72652E786D6C8D90416EC3201045AF82665B61836D9CD8C2444DD39CA01740405C94182C03558F5F9C3852BBEB6A467FFE9B197D7EF89E6EE8CB2CC17A37002D0820E394D7D68D03A478C17B4007C117EFE32F1B20272733C0
310
2A83E0E3E2D3BC49CABB685CCCAAF3DA6CA20CC14440EA969B0182FA34932C648AD911AEC52CD5558EA6A0CF2EC329598D1E47ACCEFBECC59A050463A7EA5833865FEBDD0E37353BE3EE8DBDE3F6786A48D375FBF6CC78B9C282473B3DEFABC5C86834888A900E538A49F5419B9EB47DD5BC907D4F082F57FB1F28CDFA9F50
310
B22ED6D5F6EE030B20687EE43E10BC5CB3C8E51E54AE6B6EE207504B0304140006080800CC70623B55019EA25F0000007C00000007000000636E782E786D6C4DCB3B0E80201045D1AD90E915ED2CF8AC45050C11660C8261F98AB1B07AC9C97D42D718D865D3E909258CFD00CCE24AC6E326A164D74DC0B4128928FF326038
310
472BA13128B1252AC747C6BAB984FC68F0B87FE8960A5C09FE86CFB69FBA01504B0304140006080800CC70623BA24EB22D72010000D40300000C0000006662782F636F72652E786D6CC5535B6E833010BC8AE5DF0A6C5E49888CA3A6694ED00B38E05014B091B1518EDFE511A5A9D228FD2A1F60CDEC7A67C6986DCE4D8D7A
310
69BA4AAB0C073EC548AA5C17952A33ECECD15B61B4E1CC686DBF9561A44423333CC098B3D268D7CE50AE9595CA02AA74216750749DB418E5352C32DCE59FB211BE70162ABA93DF8AFC244AE9073ED050C759670D0840D390E18DF9F1706664C23973AE2A66B62A605A75ACA4C13C4976E1364A12EF355A2EBD384AF65EFA96
310
BC7B8BED2EA6719AAE16FB8491A199335B351775B991C2CA02F390D2D40B028F861F41BCA68B7518BFD0D59A524686F29B26D7164F36B94AD9289CE54E6D1DE6010819891F6E21228B3AD1831EC219194284CF98F06DD01008846CC5A1BEF83801D4CBDC6A1303536877A57A513B0953A94FC707FDBE6064EA84A9E3E6E0FA
310
EE8CF0E9198F7784A316AA0413C2C2F2E0ECA0934D1AE6D05A69BCDE9E91D2A611F573361E38FC1375157F5752AE6B6DFE4B11990F88CCBF0719EE23FF02504B0304140006080800CC70623B408A7D3B7C0000009D0000000B0000006662782F636E782E786D6C4DCCD10A83201886E15B91FFDC552A92A0064DBC8F581632
310
D3703A76F9ABD1C18E3E78F878E5F0D9027ABBFCF2292AE86E2D20171F69F6715550CB827B40839639A5F2770314A7CD293819B45C73AAFB45B35BA61ACAA1C1C7E7855C58C15BC331339661262CC762340413D68D77DA5B42298546CBE6573AF60CEB2F504B0304140006080800CC70623B449FB9BD290100001202000031
310
0000006662782F36394639363044362D344446342D343946362D394244322D3234314243333846323333332F636F72652E786D6C8D515B6EC32010BC0AE22B55850D98B871848994463E412FE002495162B07854397EA176A4F62F3F2C9A9D991D587EB84F37F0AD7D30CEF6905418026DA553C65E7A98E219ED203808EE9D
310
8B7F6810D871D23D2C3014FCE25D9A57483A1BB58D19B54EE9151C43D0110279CB971E06F9A5A7B11A53CC8C70ADE6515EC78BAE4895DB992778883E0700CB907242D17643D7E2538BD869608875438BBAE38922CAC8F1BDD90DB4691A5E2F42C153326A951B95E398B3D1FE599322163C9AE9115F7A3D46ADA0A018778810
310
84E907617BDCEE297BC5BB3DC6BC2EF47FA234AB2745C9D8D8D035EE220B50105E2F0DC1954B9FB747187D9F9D8FA0CCDB042D5FA0C015C65B42DF78BD10F3F3B363CB56C7109DCFDFBBB97E662ED92EB62D13BC2E1BCAE5777DB9966D8A1F504B0304140006080800CC70623BAD7543B64E01000033030000300000006662
310
782F36394639363044362D344446342D343946362D394244322D3234314243333846323333332F636E782E786D6CD593CD6EC32010845F0571AD6CE3D48AD20813A9873E410FBD12D82434182C7EAAE6EDBB2424CD25871E7B41D6EC30B3FA84F9E67BB2E40B4234DE8DB46F1925E094D7C6ED479AD3AE5951B2113C789FEE
310
6C943839C1488B4C05DF079FE72A69D8C96C13AAD6B8631503449F83828872B949AC57D26200B826A308D316B4064D6E46FCDA41C05550DC9E483A00797BFD207EFB092A45DE9514C1BBD22178396BD39D891265658C238DEA00936C654E5E433CB65A26D9F6EDB5EBC14EBF49A45CB856E66048291F6939A9A81BB5C89177
310
38143CA680F4AA299D66A042CEB3354A2684DC9D8D178FE0D9B8B41CAAD720F880EE7EF93C0C18769E099ECC04D5A102C8049A8A05632F4DDF376CF1DE0F6BB65C2F8627B65A33C6BB62177CEBBDAD973006829F89F22E814B54F4BC2BE347F8AA8F681390B50FA73F804400B5F542E796F19FF974E7F78DB802FE05E20750
310
4B0304140006080800CC70623B8D05915C650500003B100000340000006662782F36394639363044362D344446342D343946362D394244322D3234314243333846323333332F6F626A656374732E786D6CAD575B6FA33814FE2B887D06429276DA1565D4266D158D3A339A6846FB502932E050B66023DB74D2FDF5FB190C01
310
9276B2973C046C8ECFF53B17071F77456EBD502133CEAE6CDF9DD81665314F32965ED995DA3A17B6F5310C04E7AA47665B8C14F4CAD6DB7618A48257A5D94AE89654B91AEDDEDDFC61C998326A5B714EA4BCB265FC440BE2924AF184CA6737218AB8E976E7FA6E4338649B0A523E8D98964450A6A029F619B8588D52FE7039
310
B1BD30F0F4F730D0FF866AF6369557DB33949F31A9088B0F848DD8CCFCF9F2767A76E99CCDE733677E3EF59D9BBB9BA5E37F984D16E78BC5E5F5ED25044B25C0C96822E8D60EEFE11B91C581D77CEA34368A1F5329E68CD1B8B61F16D63A1B8E092D294B10C78C4A48EB593D192E7DED9BDEE7995E1B91FDEDD3ACEA9FE831
310
6A756F9F7D4D79F4274C90A7A04248AA51D5F8C718DAE06FB2F75AC4796EBE65D22A88A22223B995679120E2D50E41AA49C260C046A35368846B0BECD0DFF3EBEB8AD4F835768F69B9ADF25C43D30E6B646F807FAA64AD59F61715C7A54127C4AACA98BA3006A9D792DAE165E0D59B61A01FB3A9F9D838D2DAE62445C86166
310
F37564E842E7DE6A69879FEEA2DD5AE7E371E1A5E025154AC307D06A03D73EB5978C58FFA4C8E9033066E0F3BD53BEC1F39F91BE7B55103791EDE6BBB991A2046172CB4581D8B893FA674DDA17A77B3B7C413D1B511FD2743BFF8A38F03A658705E3ADF8015C3A3417FF3D7E439FF591DA0B5F18BC20C1B8981957AE6392A3
310
F43C640C01D1A0B4728E2DD4F26DB4B3C3152A252A3B4E913CEC1C72F012782FF88EFF8637AA552DBEF76408E8A8DE9E50F9E1CB3A2DA0DB1B6039A893B56063DC5B3E3FFB5F72E67AB9FEB4AEC496C4F4C1149625DD662C53E89D7BF0F6151A046260D1337DFDC94502430F83B0EE07A130A224BCAD7DAE1D9FB6CD422FF6
310
920702629C4BB9AE79C12F243C6432A6794E18E5552BA56B431AAB5D91317302B2B071E86C3A42B1A02F999E24061403B5D0EB639195DA655DD3EBEAB4FB862DDF579F014AD0E73C22F99E28DA57FB98E75C6CA2D74D53086D600F4786E0FE3144B771A8A7B900F03594DB8A633CBC49B2EDB69228BB479CF863B5E807AAAB
310
23872F6DFEB4129B949CA33823F58830E86D65621E10047D9DB34D862E8EAC3C2ABC2F7B2C40D67CDFE01F5545B92105AF983AC54D93D69E56FB8E797F88913F898A9FEC705D3F9D1B54EC8426FB500D40A03BD0119B06E1B95DDC7EB8F6975367793EBD70E66733DFB9BC982F9CE564727731999F5D4ECFCE3B8D6A4DC2A0
310
6D50FD148437D110834A64C6CDDF57FBACB5C307A2A477DFE4939736CFEF2B175371E0E10CF0DD1D5C15654E0BCA14D1E87DD02FF93782A162C0A3D95F1524A52770F972BF1EE9809D13CE7DD599467F8ECE9ADD85CE85A34CD45355448C64F9E8A031DC2D596ACC6E5DD93D9B82DE2EF5CAF81363A8E47996A0DE24564A79
310
4115AACE09C55E14540231FDA13C319787134EBF34E3A022514E5B4D9E0826E25C02D5805B15ABE1BEF51B26383D445DD9E875EE33FE4C22DA16427D65A3BCA92CA6D28DD01DF5DC53330704308475351050232CCD31583787BA75774AFB06E5070DD0C8EF484E19968C5D83BA5B90B244D31E54D55A372320FE4786B7EA58
310
44E135AA5467CB7EA333A61683CC6A8C3257034C10CF46F40EF9F5BE59BE5BD30C3C72D235E95D10345C1D45445A5F0BB47E46A5EBE5570F9380B5FA629579952296A773720405982B9DE04011506178964401AA8BDF1FBF0A8EAB6861DD6580C0E38217056766716DAEB2D6FA0917D3E4116581EADB879C4E7CFFB11EFACD
310
3D641311495D92C8676CB409A72D18610D803CE8A626049E8EC1887CB5B44CC39883690DDA8399B4B9855B481E7D71D4A9D22F96E5BB73BF5793020C02137BF837504B0304140006080000CC70623B000000000000000000000000350000006662782F36394639363044362D344446342D343946362D394244322D32343142
310
43333846323333332F76657274696365732E62696E504B0304140006080800CC70623BF270F1330600000004000000360000006662782F36394639363044362D344446342D343946362D394244322D3234314243333846323333332F747269616E676C65732E62696E636660600000504B0304140006080000CC70623B0000
310
00000000000000000000370000006662782F36394639363044362D344446342D343946362D394244322D3234314243333846323333332F617474726962757465732E62696E504B0304140006080800CC70623B08DA0BD19000000041010000360000006662782F36394639363044362D344446342D343946362D394244322D
310
3234314243333846323333332F6469726563746F72792E786D6C858F410AC3201045AF22B36F53E9A60B35CBEEBAE80D244E44489C6234F4F835464A48035D0DF398FF9F8AF63D0E6CC63039F212F8F9020C7D47C6792B21C5FE7403D62A1188E2E60C98D7234A5830286103A55745067B9D86B8A3CF9C7F90C11DE607FB14
310
4396D7B6A82D282E9A152AD114D5EF2CB866EEE831B8EEA07A7BB5A8D7D61A2BAAEB7FD5F70921FF497D00504B0304140006080800CC70623BCA768048FE000000A00100003B0000006662782F36394639363044362D344446342D343946362D394244322D3234314243333846323333332F7265736F75726365732F636F72
310
652E786D6C8D50596E833010BD0A9ADFCA60D600328E9AA639412F609909B1126CE4A5EAF16B0295DABFFECC8CDEA2797AECF8353F924FB44E193D409E5248504B332A3D0D10FC95B4901C39B3C6F85F3248B49871801506CE266BC2B243D2688FDA47549B11775038871E12F988C7004EDE7016A9083E2ADC3D5D84BC8B09
310
D33C8D74D471E6BC8D0192EDC93A815B742658898E651BCB59086ADC356A8C3FD555A1055ED7E7E254D615792D0F075295F585746FF53B694EE78A565DD736979A65AB9933AFE69F8CD2A2F038022F28ED489E135A7CE4554F9BBEA85E68DB53CAB255FEC71496F19FA6A0B42F8B3DEE6673C0F318E4497096AD7DC5F52C33
310
EEB55BFE0D504B010214000A0000080000CC70623B3DEE336E79000000790000001B00000000000000000000000000000000006175746F6465736B2D64657369676E2D7061636B6167652E786D6C504B01021400140006080800CC70623BD486FD9CA0000000F40000001300000000000000000000000000B20000005B436F
310
6E74656E745F54797065735D2E786D6C504B01021400140006080800CC70623BD9DDAED0EC0000007C010000080000000000000000000000000083010000636F72652E786D6C504B01021400140006080800CC70623B55019EA25F0000007C000000070000000000000000000000000095020000636E782E786D6C504B0102
310
1400140006080800CC70623BA24EB22D72010000D40300000C00000000000000000000000000190300006662782F636F72652E786D6C504B01021400140006080800CC70623B408A7D3B7C0000009D0000000B00000000000000000000000000B50400006662782F636E782E786D6C504B01021400140006080800CC70623B
310
449FB9BD290100001202000031000000000000000000000000005A0500006662782F36394639363044362D344446342D343946362D394244322D3234314243333846323333332F636F72652E786D6C504B01021400140006080800CC70623BAD7543B64E010000330300003000000000000000000000000000D20600006662
310
782F36394639363044362D344446342D343946362D394244322D3234314243333846323333332F636E782E786D6C504B01021400140006080800CC70623B8D05915C650500003B10000034000000000000000000000000006E0800006662782F36394639363044362D344446342D343946362D394244322D32343142433338
310
46323333332F6F626A656374732E786D6C504B01021400140006080000CC70623B0000000000000000000000003500000000000000000000000000250E00006662782F36394639363044362D344446342D343946362D394244322D3234314243333846323333332F76657274696365732E62696E504B010214001400060808
310
00CC70623BF270F13306000000040000003600000000000000000000000000780E00006662782F36394639363044362D344446342D343946362D394244322D3234314243333846323333332F747269616E676C65732E62696E504B01021400140006080000CC70623B00000000000000000000000037000000000000000000
310
00000000D20E00006662782F36394639363044362D344446342D343946362D394244322D3234314243333846323333332F617474726962757465732E62696E504B01021400140006080800CC70623B08DA0BD190000000410100003600000000000000000000000000270F00006662782F36394639363044362D344446342D
310
343946362D394244322D3234314243333846323333332F6469726563746F72792E786D6C504B01021400140006080800CC70623BCA768048FE000000A00100003B000000000000000000000000000B1000006662782F36394639363044362D344446342D343946362D394244322D3234314243333846323333332F7265736F
310
75726365732F636F72652E786D6C504B0506000000000E000E0080040000621100000000
  0
XRECORD
  5
176
102
{ACAD_REACTORS
330
173
102
}
330
173
100
AcDbXrecord
280
     1
270
     1
271
     1
  0
XRECORD
  5
177
102
{ACAD_REACTORS
330
173
102
}
330
173
100
AcDbXrecord
280
     1
270
     1
271
     1
  0
CELLSTYLEMAP
  5
4DF
102
{ACAD_REACTORS
330
162
102
}
330
162
100
AcDbCellStyleMap
 90
        3
300
CELLSTYLE
  1
TABLEFORMAT_BEGIN
 90
        5
170
     1
 91
        0
 92
    32768
 62
   257
 93
        1
300
CONTENTFORMAT
  1
CONTENTFORMAT_BEGIN
 90
        0
 91
        0
 92
      512
 93
        0
300

 40
0.0
140
1.0
 94
        5
 62
     0
340
11
144
6.0
309
CONTENTFORMAT_END
171
     1
301
MARGIN
  1
CELLMARGIN_BEGIN
 40
1.5
 40
1.5
 40
1.5
 40
1.5
 40
0.18
 40
0.18
309
CELLMARGIN_END
 94
        6
 95
        1
302
GRIDFORMAT
  1
GRIDFORMAT_BEGIN
 90
        0
 91
        1
 62
     0
 92
       -2
340
14
 93
        0
 40
1.125
309
GRIDFORMAT_END
 95
        2
302
GRIDFORMAT
  1
GRIDFORMAT_BEGIN
 90
        0
 91
        1
 62
     0
 92
       -2
340
14
 93
        0
 40
1.125
309
GRIDFORMAT_END
 95
        4
302
GRIDFORMAT
  1
GRIDFORMAT_BEGIN
 90
        0
 91
        1
 62
     0
 92
       -2
340
14
 93
        0
 40
1.125
309
GRIDFORMAT_END
 95
        8
302
GRIDFORMAT
  1
GRIDFORMAT_BEGIN
 90
        0
 91
        1
 62
     0
 92
       -2
340
14
 93
        0
 40
1.125
309
GRIDFORMAT_END
 95
       16
302
GRIDFORMAT
  1
GRIDFORMAT_BEGIN
 90
        0
 91
        1
 62
     0
 92
       -2
340
14
 93
        0
 40
1.125
309
GRIDFORMAT_END
 95
       32
302
GRIDFORMAT
  1
GRIDFORMAT_BEGIN
 90
        0
 91
        1
 62
     0
 92
       -2
340
14
 93
        0
 40
1.125
309
GRIDFORMAT_END
309
TABLEFORMAT_END
  1
CELLSTYLE_BEGIN
 90
        1
 91
        1
300
_TITLE
309
CELLSTYLE_END
300
CELLSTYLE
  1
TABLEFORMAT_BEGIN
 90
        5
170
     1
 91
        0
 92
        0
 62
   257
 93
        1
300
CONTENTFORMAT
  1
CONTENTFORMAT_BEGIN
 90
        0
 91
        0
 92
      512
 93
        0
300

 40
0.0
140
1.0
 94
        5
 62
     0
340
11
144
4.5
309
CONTENTFORMAT_END
171
     1
301
MARGIN
  1
CELLMARGIN_BEGIN
 40
1.5
 40
1.5
 40
1.5
 40
1.5
 40
0.18
 40
0.18
309
CELLMARGIN_END
 94
        6
 95
        1
302
GRIDFORMAT
  1
GRIDFORMAT_BEGIN
 90
        0
 91
        1
 62
     0
 92
       -2
340
14
 93
        0
 40
1.125
309
GRIDFORMAT_END
 95
        2
302
GRIDFORMAT
  1
GRIDFORMAT_BEGIN
 90
        0
 91
        1
 62
     0
 92
       -2
340
14
 93
        0
 40
1.125
309
GRIDFORMAT_END
 95
        4
302
GRIDFORMAT
  1
GRIDFORMAT_BEGIN
 90
        0
 91
        1
 62
     0
 92
       -2
340
14
 93
        0
 40
1.125
309
GRIDFORMAT_END
 95
        8
302
GRIDFORMAT
  1
GRIDFORMAT_BEGIN
 90
        0
 91
        1
 62
     0
 92
       -2
340
14
 93
        0
 40
1.125
309
GRIDFORMAT_END
 95
       16
302
GRIDFORMAT
  1
GRIDFORMAT_BEGIN
 90
        0
 91
        1
 62
     0
 92
       -2
340
14
 93
        0
 40
1.125
309
GRIDFORMAT_END
 95
       32
302
GRIDFORMAT
  1
GRIDFORMAT_BEGIN
 90
        0
 91
        1
 62
     0
 92
       -2
340
14
 93
        0
 40
1.125
309
GRIDFORMAT_END
309
TABLEFORMAT_END
  1
CELLSTYLE_BEGIN
 90
        2
 91
        1
300
_HEADER
309
CELLSTYLE_END
300
CELLSTYLE
  1
TABLEFORMAT_BEGIN
 90
        5
170
     1
 91
        0
 92
        0
 62
   257
 93
        1
300
CONTENTFORMAT
  1
CONTENTFORMAT_BEGIN
 90
        0
 91
        0
 92
      512
 93
        0
300

 40
0.0
140
1.0
 94
        2
 62
     0
340
11
144
4.5
309
CONTENTFORMAT_END
171
     1
301
MARGIN
  1
CELLMARGIN_BEGIN
 40
1.5
 40
1.5
 40
1.5
 40
1.5
 40
0.18
 40
0.18
309
CELLMARGIN_END
 94
        6
 95
        1
302
GRIDFORMAT
  1
GRIDFORMAT_BEGIN
 90
        0
 91
        1
 62
     0
 92
       -2
340
14
 93
        0
 40
1.125
309
GRIDFORMAT_END
 95
        2
302
GRIDFORMAT
  1
GRIDFORMAT_BEGIN
 90
        0
 91
        1
 62
     0
 92
       -2
340
14
 93
        0
 40
1.125
309
GRIDFORMAT_END
 95
        4
302
GRIDFORMAT
  1
GRIDFORMAT_BEGIN
 90
        0
 91
        1
 62
     0
 92
       -2
340
14
 93
        0
 40
1.125
309
GRIDFORMAT_END
 95
        8
302
GRIDFORMAT
  1
GRIDFORMAT_BEGIN
 90
        0
 91
        1
 62
     0
 92
       -2
340
14
 93
        0
 40
1.125
309
GRIDFORMAT_END
 95
       16
302
GRIDFORMAT
  1
GRIDFORMAT_BEGIN
 90
        0
 91
        1
 62
     0
 92
       -2
340
14
 93
        0
 40
1.125
309
GRIDFORMAT_END
 95
       32
302
GRIDFORMAT
  1
GRIDFORMAT_BEGIN
 90
        0
 91
        1
 62
     0
 92
       -2
340
14
 93
        0
 40
1.125
309
GRIDFORMAT_END
309
TABLEFORMAT_END
  1
CELLSTYLE_BEGIN
 90
        3
 91
        2
300
_DATA
309
CELLSTYLE_END
  0
XRECORD
  5
4E4
102
{ACAD_REACTORS
330
162
102
}
330
162
100
AcDbXrecord
280
     1
102
ACAD_ROUNDTRIP_PRE2007_TABLESTYLE
 90
      512
 91
        0
  1

 92
      512
 93
        0
  2

 94
      512
 95
        0
  3

  0
XRECORD
  5
4F4
102
{ACAD_REACTORS
330
4F3
102
}
330
4F3
100
AcDbXrecord
280
     1
102
RTVSPost2010Prop28
280
     1
102
RTVSPost2010PropOp28
 70
     1
102
RTVSPost2010Prop29
280
     1
102
RTVSPost2010PropOp29
 70
     1
102
RTVSPost2010Prop30
280
     0
102
RTVSPost2010PropOp30
 70
     1
102
RTVSPost2010Prop31
280
     0
102
RTVSPost2010PropOp31
 70
     1
102
RTVSPost2010Prop32
280
     0
102
RTVSPost2010PropOp32
 70
     1
102
RTVSPost2010Prop33
280
     0
102
RTVSPost2010PropOp33
 70
     1
102
RTVSPost2010Prop34
280
     0
102
RTVSPost2010PropOp34
 70
     1
102
RTVSPost2010Prop35
280
     0
102
RTVSPost2010PropOp35
 70
     1
102
RTVSPost2010Prop36
280
     0
102
RTVSPost2010PropOp36
 70
     1
102
RTVSPost2010Prop37
 90
       50
102
RTVSPost2010PropOp37
 70
     1
102
RTVSPost2010Prop38
140
0.0
102
RTVSPost2010PropOp38
 70
     1
102
RTVSPost2010Prop39
140
1.0
102
RTVSPost2010PropOp39
 70
     1
102
RTVSPost2010Prop40
 90
        0
102
RTVSPost2010PropOp40
 70
     1
102
RTVSPost2010Prop41ColorIndex
 90
       18
102
RTVSPost2010Prop41ColorRGB
 90
        0
102
RTVSPost2010PropOp41
 70
     1
102
RTVSPost2010Prop42
 90
       50
102
RTVSPost2010PropOp42
 70
     1
102
RTVSPost2010Prop43
 90
        3
102
RTVSPost2010PropOp43
 70
     1
102
RTVSPost2010Prop44ColorIndex
 90
        5
102
RTVSPost2010Prop44ColorRGB
 90
      255
102
RTVSPost2010PropOp44
 70
     1
102
RTVSPost2010Prop45
280
     0
102
RTVSPost2010PropOp45
 70
     1
102
RTVSPost2010Prop46
 90
       50
102
RTVSPost2010PropOp46
 70
     1
102
RTVSPost2010Prop47
 90
       50
102
RTVSPost2010PropOp47
 70
     1
102
RTVSPost2010Prop48
 90
       50
102
RTVSPost2010PropOp48
 70
     1
102
RTVSPost2010Prop49
280
     0
102
RTVSPost2010PropOp49
 70
     1
102
RTVSPost2010Prop50
 90
       50
102
RTVSPost2010PropOp50
 70
     1
102
RTVSPost2010Prop51ColorIndex
 90
      256
102
RTVSPost2010Prop51ColorRGB
 90
-16777216
102
RTVSPost2010PropOp51
 70
     0
102
RTVSPost2010Prop52
140
1.0
102
RTVSPost2010PropOp52
 70
     0
102
RTVSPost2010Prop53
 90
        2
102
RTVSPost2010PropOp53
 70
     1
102
RTVSPost2010Prop54
  1
strokes_ogs.tif
102
RTVSPost2010PropOp54
 70
     1
102
RTVSPost2010Prop55
280
     0
102
RTVSPost2010PropOp55
 70
     1
102
RTVSPost2010Prop56
140
1.0
102
RTVSPost2010PropOp56
 70
     1
102
RTVSPost2010Prop57
140
1.0
102
RTVSPost2010PropOp57
 70
     1
102
RTVSPropertyOp0
 70
     1
102
RTVSPropertyOp1
 70
     1
102
RTVSPropertyOp2
 70
     1
102
RTVSPropertyOp3
 70
     1
102
RTVSPropertyOp4
 70
     1
102
RTVSPropertyOp5
 70
     1
102
RTVSPropertyOp6
 70
     1
102
RTVSPropertyOp7
 70
     1
102
RTVSPropertyOp8
 70
     1
102
RTVSPropertyOp9
 70
     1
102
RTVSPropertyOp10
 70
     1
102
RTVSPropertyOp11
 70
     1
102
RTVSPropertyOp12
 70
     1
102
RTVSPropertyOp13
 70
     1
102
RTVSPropertyOp14
 70
     1
102
RTVSPropertyOp15
 70
     1
102
RTVSPropertyOp16
 70
     1
102
RTVSPropertyOp17
 70
     1
102
RTVSPropertyOp18
 70
     1
102
RTVSPropertyOp19
 70
     1
102
RTVSPropertyOp20
 70
     1
102
RTVSPropertyOp21
 70
     1
102
RTVSPropertyOp22
 70
     1
102
RTVSPropertyOp23
 70
     1
102
RTVSPropertyOp24
 70
     1
102
RTVSPropertyOp25
 70
     1
102
RTVSPropertyOp26
 70
     1
102
RTVSPropertyOp27
 70
     1
102
RTVSPropertyOp28
 70
     1
102
RTVSPropertyOp29
 70
     1
102
RTVSPropertyOp30
 70
     1
102
RTVSPropertyOp31
 70
     1
102
RTVSPropertyOp32
 70
     1
102
RTVSPropertyOp33
 70
     1
102
RTVSPropertyOp34
 70
     1
102
RTVSPropertyOp35
 70
     1
102
RTVSPropertyOp36
 70
     1
102
RTVSPropertyOp37
 70
     1
102
RTVSPropertyOp38
 70
     1
102
RTVSPropertyOp39
 70
     1
102
RTVSPropertyOp40
 70
     1
102
RTVSPropertyOp41
 70
     1
102
RTVSPropertyOp42
 70
     1
102
RTVSPropertyOp43
 70
     1
102
RTVSPropertyOp44
 70
     1
102
RTVSPropertyOp45
 70
     1
102
RTVSPropertyOp46
 70
     1
102
RTVSPropertyOp47
 70
     1
102
RTVSPropertyOp48
 70
     1
102
RTVSPropertyOp49
 70
     1
102
RTVSPropertyOp50
 70
     1
102
RTVSPropertyOp51
 70
     0
102
RTVSPropertyOp52
 70
     0
102
RTVSPropertyOp53
 70
     1
102
RTVSPropertyOp54
 70
     1
102
RTVSPropertyOp55
 70
     1
102
RTVSPropertyOp56
 70
     1
102
RTVSPropertyOp57
 70
     1
102
RTVSPropertyOp58
 70
     1
102
RTVSPropertyOp59
 70
     1
102
RTVSPropertyOp60
 70
     1
102
RTVSPropertyOp61
 70
     1
102
RTVSPropertyOp62
 70
     1
  0
XRECORD
  5
4F2
102
{ACAD_REACTORS
330
4F1
102
}
330
4F1
100
AcDbXrecord
280
     1
102
RTVSPost2010Prop28
280
     0
102
RTVSPost2010PropOp28
 70
     1
102
RTVSPost2010Prop29
280
     1
102
RTVSPost2010PropOp29
 70
     1
102
RTVSPost2010Prop30
280
     1
102
RTVSPost2010PropOp30
 70
     1
102
RTVSPost2010Prop31
280
     0
102
RTVSPost2010PropOp31
 70
     1
102
RTVSPost2010Prop32
280
     0
102
RTVSPost2010PropOp32
 70
     1
102
RTVSPost2010Prop33
280
     0
102
RTVSPost2010PropOp33
 70
     1
102
RTVSPost2010Prop34
280
     0
102
RTVSPost2010PropOp34
 70
     1
102
RTVSPost2010Prop35
280
     0
102
RTVSPost2010PropOp35
 70
     1
102
RTVSPost2010Prop36
280
     0
102
RTVSPost2010PropOp36
 70
     1
102
RTVSPost2010Prop37
 90
       50
102
RTVSPost2010PropOp37
 70
     1
102
RTVSPost2010Prop38
140
0.0
102
RTVSPost2010PropOp38
 70
     1
102
RTVSPost2010Prop39
140
1.0
102
RTVSPost2010PropOp39
 70
     1
102
RTVSPost2010Prop40
 90
        0
102
RTVSPost2010PropOp40
 70
     1
102
RTVSPost2010Prop41ColorIndex
 90
       18
102
RTVSPost2010Prop41ColorRGB
 90
        0
102
RTVSPost2010PropOp41
 70
     1
102
RTVSPost2010Prop42
 90
       50
102
RTVSPost2010PropOp42
 70
     1
102
RTVSPost2010Prop43
 90
        3
102
RTVSPost2010PropOp43
 70
     1
102
RTVSPost2010Prop44ColorIndex
 90
        5
102
RTVSPost2010Prop44ColorRGB
 90
      255
102
RTVSPost2010PropOp44
 70
     1
102
RTVSPost2010Prop45
280
     0
102
RTVSPost2010PropOp45
 70
     1
102
RTVSPost2010Prop46
 90
       50
102
RTVSPost2010PropOp46
 70
     1
102
RTVSPost2010Prop47
 90
       50
102
RTVSPost2010PropOp47
 70
     1
102
RTVSPost2010Prop48
 90
       50
102
RTVSPost2010PropOp48
 70
     1
102
RTVSPost2010Prop49
280
     0
102
RTVSPost2010PropOp49
 70
     1
102
RTVSPost2010Prop50
 90
       50
102
RTVSPost2010PropOp50
 70
     1
102
RTVSPost2010Prop51ColorIndex
 90
      256
102
RTVSPost2010Prop51ColorRGB
 90
-16777216
102
RTVSPost2010PropOp51
 70
     0
102
RTVSPost2010Prop52
140
1.0
102
RTVSPost2010PropOp52
 70
     0
102
RTVSPost2010Prop53
 90
        2
102
RTVSPost2010PropOp53
 70
     1
102
RTVSPost2010Prop54
  1
strokes_ogs.tif
102
RTVSPost2010PropOp54
 70
     1
102
RTVSPost2010Prop55
280
     0
102
RTVSPost2010PropOp55
 70
     1
102
RTVSPost2010Prop56
140
1.0
102
RTVSPost2010PropOp56
 70
     1
102
RTVSPost2010Prop57
140
1.0
102
RTVSPost2010PropOp57
 70
     1
102
RTVSPropertyOp0
 70
     1
102
RTVSPropertyOp1
 70
     1
102
RTVSPropertyOp2
 70
     1
102
RTVSPropertyOp3
 70
     1
102
RTVSPropertyOp4
 70
     1
102
RTVSPropertyOp5
 70
     1
102
RTVSPropertyOp6
 70
     1
102
RTVSPropertyOp7
 70
     1
102
RTVSPropertyOp8
 70
     1
102
RTVSPropertyOp9
 70
     1
102
RTVSPropertyOp10
 70
     1
102
RTVSPropertyOp11
 70
     1
102
RTVSPropertyOp12
 70
     1
102
RTVSPropertyOp13
 70
     1
102
RTVSPropertyOp14
 70
     1
102
RTVSPropertyOp15
 70
     1
102
RTVSPropertyOp16
 70
     1
102
RTVSPropertyOp17
 70
     1
102
RTVSPropertyOp18
 70
     1
102
RTVSPropertyOp19
 70
     1
102
RTVSPropertyOp20
 70
     1
102
RTVSPropertyOp21
 70
     1
102
RTVSPropertyOp22
 70
     1
102
RTVSPropertyOp23
 70
     1
102
RTVSPropertyOp24
 70
     1
102
RTVSPropertyOp25
 70
     1
102
RTVSPropertyOp26
 70
     1
102
RTVSPropertyOp27
 70
     1
102
RTVSPropertyOp28
 70
     1
102
RTVSPropertyOp29
 70
     1
102
RTVSPropertyOp30
 70
     1
102
RTVSPropertyOp31
 70
     1
102
RTVSPropertyOp32
 70
     1
102
RTVSPropertyOp33
 70
     1
102
RTVSPropertyOp34
 70
     1
102
RTVSPropertyOp35
 70
     1
102
RTVSPropertyOp36
 70
     1
102
RTVSPropertyOp37
 70
     1
102
RTVSPropertyOp38
 70
     1
102
RTVSPropertyOp39
 70
     1
102
RTVSPropertyOp40
 70
     1
102
RTVSPropertyOp41
 70
     1
102
RTVSPropertyOp42
 70
     1
102
RTVSPropertyOp43
 70
     1
102
RTVSPropertyOp44
 70
     1
102
RTVSPropertyOp45
 70
     1
102
RTVSPropertyOp46
 70
     1
102
RTVSPropertyOp47
 70
     1
102
RTVSPropertyOp48
 70
     1
102
RTVSPropertyOp49
 70
     1
102
RTVSPropertyOp50
 70
     1
102
RTVSPropertyOp51
 70
     0
102
RTVSPropertyOp52
 70
     0
102
RTVSPropertyOp53
 70
     1
102
RTVSPropertyOp54
 70
     1
102
RTVSPropertyOp55
 70
     1
102
RTVSPropertyOp56
 70
     1
102
RTVSPropertyOp57
 70
     1
102
RTVSPropertyOp58
 70
     1
102
RTVSPropertyOp59
 70
     1
102
RTVSPropertyOp60
 70
     1
102
RTVSPropertyOp61
 70
     1
102
RTVSPropertyOp62
 70
     1
  0
XRECORD
  5
500
102
{ACAD_REACTORS
330
4FF
102
}
330
4FF
100
AcDbXrecord
280
     1
102
RTVSPost2010Prop28
280
     0
102
RTVSPost2010PropOp28
 70
     1
102
RTVSPost2010Prop29
280
     1
102
RTVSPost2010PropOp29
 70
     1
102
RTVSPost2010Prop30
280
     1
102
RTVSPost2010PropOp30
 70
     1
102
RTVSPost2010Prop31
280
     0
102
RTVSPost2010PropOp31
 70
     1
102
RTVSPost2010Prop32
280
     0
102
RTVSPost2010PropOp32
 70
     1
102
RTVSPost2010Prop33
280
     0
102
RTVSPost2010PropOp33
 70
     1
102
RTVSPost2010Prop34
280
     0
102
RTVSPost2010PropOp34
 70
     1
102
RTVSPost2010Prop35
280
     0
102
RTVSPost2010PropOp35
 70
     1
102
RTVSPost2010Prop36
280
     0
102
RTVSPost2010PropOp36
 70
     1
102
RTVSPost2010Prop37
 90
       50
102
RTVSPost2010PropOp37
 70
     1
102
RTVSPost2010Prop38
140
0.0
102
RTVSPost2010PropOp38
 70
     1
102
RTVSPost2010Prop39
140
1.0
102
RTVSPost2010PropOp39
 70
     1
102
RTVSPost2010Prop40
 90
        0
102
RTVSPost2010PropOp40
 70
     1
102
RTVSPost2010Prop41ColorIndex
 90
       18
102
RTVSPost2010Prop41ColorRGB
 90
        0
102
RTVSPost2010PropOp41
 70
     1
102
RTVSPost2010Prop42
 90
       50
102
RTVSPost2010PropOp42
 70
     1
102
RTVSPost2010Prop43
 90
        3
102
RTVSPost2010PropOp43
 70
     1
102
RTVSPost2010Prop44ColorIndex
 90
        5
102
RTVSPost2010Prop44ColorRGB
 90
      255
102
RTVSPost2010PropOp44
 70
     1
102
RTVSPost2010Prop45
280
     0
102
RTVSPost2010PropOp45
 70
     1
102
RTVSPost2010Prop46
 90
       50
102
RTVSPost2010PropOp46
 70
     1
102
RTVSPost2010Prop47
 90
       50
102
RTVSPost2010PropOp47
 70
     1
102
RTVSPost2010Prop48
 90
       50
102
RTVSPost2010PropOp48
 70
     1
102
RTVSPost2010Prop49
280
     0
102
RTVSPost2010PropOp49
 70
     1
102
RTVSPost2010Prop50
 90
       50
102
RTVSPost2010PropOp50
 70
     1
102
RTVSPost2010Prop51ColorIndex
 90
      256
102
RTVSPost2010Prop51ColorRGB
 90
-16777216
102
RTVSPost2010PropOp51
 70
     0
102
RTVSPost2010Prop52
140
1.0
102
RTVSPost2010PropOp52
 70
     0
102
RTVSPost2010Prop53
 90
        2
102
RTVSPost2010PropOp53
 70
     1
102
RTVSPost2010Prop54
  1
strokes_ogs.tif
102
RTVSPost2010PropOp54
 70
     1
102
RTVSPost2010Prop55
280
     0
102
RTVSPost2010PropOp55
 70
     1
102
RTVSPost2010Prop56
140
1.0
102
RTVSPost2010PropOp56
 70
     1
102
RTVSPost2010Prop57
140
1.0
102
RTVSPost2010PropOp57
 70
     1
102
RTVSPropertyOp0
 70
     1
102
RTVSPropertyOp1
 70
     1
102
RTVSPropertyOp2
 70
     1
102
RTVSPropertyOp3
 70
     1
102
RTVSPropertyOp4
 70
     1
102
RTVSPropertyOp5
 70
     1
102
RTVSPropertyOp6
 70
     1
102
RTVSPropertyOp7
 70
     1
102
RTVSPropertyOp8
 70
     1
102
RTVSPropertyOp9
 70
     1
102
RTVSPropertyOp10
 70
     1
102
RTVSPropertyOp11
 70
     1
102
RTVSPropertyOp12
 70
     1
102
RTVSPropertyOp13
 70
     1
102
RTVSPropertyOp14
 70
     1
102
RTVSPropertyOp15
 70
     1
102
RTVSPropertyOp16
 70
     1
102
RTVSPropertyOp17
 70
     1
102
RTVSPropertyOp18
 70
     1
102
RTVSPropertyOp19
 70
     1
102
RTVSPropertyOp20
 70
     1
102
RTVSPropertyOp21
 70
     1
102
RTVSPropertyOp22
 70
     1
102
RTVSPropertyOp23
 70
     1
102
RTVSPropertyOp24
 70
     1
102
RTVSPropertyOp25
 70
     1
102
RTVSPropertyOp26
 70
     1
102
RTVSPropertyOp27
 70
     1
102
RTVSPropertyOp28
 70
     1
102
RTVSPropertyOp29
 70
     1
102
RTVSPropertyOp30
 70
     1
102
RTVSPropertyOp31
 70
     1
102
RTVSPropertyOp32
 70
     1
102
RTVSPropertyOp33
 70
     1
102
RTVSPropertyOp34
 70
     1
102
RTVSPropertyOp35
 70
     1
102
RTVSPropertyOp36
 70
     1
102
RTVSPropertyOp37
 70
     1
102
RTVSPropertyOp38
 70
     1
102
RTVSPropertyOp39
 70
     1
102
RTVSPropertyOp40
 70
     1
102
RTVSPropertyOp41
 70
     1
102
RTVSPropertyOp42
 70
     1
102
RTVSPropertyOp43
 70
     1
102
RTVSPropertyOp44
 70
     1
102
RTVSPropertyOp45
 70
     1
102
RTVSPropertyOp46
 70
     1
102
RTVSPropertyOp47
 70
     1
102
RTVSPropertyOp48
 70
     1
102
RTVSPropertyOp49
 70
     1
102
RTVSPropertyOp50
 70
     1
102
RTVSPropertyOp51
 70
     0
102
RTVSPropertyOp52
 70
     0
102
RTVSPropertyOp53
 70
     1
102
RTVSPropertyOp54
 70
     1
102
RTVSPropertyOp55
 70
     1
102
RTVSPropertyOp56
 70
     1
102
RTVSPropertyOp57
 70
     1
102
RTVSPropertyOp58
 70
     1
102
RTVSPropertyOp59
 70
     1
102
RTVSPropertyOp60
 70
     1
102
RTVSPropertyOp61
 70
     1
102
RTVSPropertyOp62
 70
     1
  0
XRECORD
  5
508
102
{ACAD_REACTORS
330
507
102
}
330
507
100
AcDbXrecord
280
     1
102
RTVSPost2010Prop28
280
     0
102
RTVSPost2010PropOp28
 70
     1
102
RTVSPost2010Prop29
280
     1
102
RTVSPost2010PropOp29
 70
     1
102
RTVSPost2010Prop30
280
     1
102
RTVSPost2010PropOp30
 70
     1
102
RTVSPost2010Prop31
280
     0
102
RTVSPost2010PropOp31
 70
     1
102
RTVSPost2010Prop32
280
     0
102
RTVSPost2010PropOp32
 70
     1
102
RTVSPost2010Prop33
280
     0
102
RTVSPost2010PropOp33
 70
     1
102
RTVSPost2010Prop34
280
     0
102
RTVSPost2010PropOp34
 70
     1
102
RTVSPost2010Prop35
280
     0
102
RTVSPost2010PropOp35
 70
     1
102
RTVSPost2010Prop36
280
     0
102
RTVSPost2010PropOp36
 70
     1
102
RTVSPost2010Prop37
 90
       50
102
RTVSPost2010PropOp37
 70
     1
102
RTVSPost2010Prop38
140
0.0
102
RTVSPost2010PropOp38
 70
     1
102
RTVSPost2010Prop39
140
1.0
102
RTVSPost2010PropOp39
 70
     1
102
RTVSPost2010Prop40
 90
        0
102
RTVSPost2010PropOp40
 70
     1
102
RTVSPost2010Prop41ColorIndex
 90
       18
102
RTVSPost2010Prop41ColorRGB
 90
        0
102
RTVSPost2010PropOp41
 70
     1
102
RTVSPost2010Prop42
 90
       50
102
RTVSPost2010PropOp42
 70
     1
102
RTVSPost2010Prop43
 90
        3
102
RTVSPost2010PropOp43
 70
     1
102
RTVSPost2010Prop44ColorIndex
 90
        5
102
RTVSPost2010Prop44ColorRGB
 90
      255
102
RTVSPost2010PropOp44
 70
     1
102
RTVSPost2010Prop45
280
     0
102
RTVSPost2010PropOp45
 70
     1
102
RTVSPost2010Prop46
 90
       50
102
RTVSPost2010PropOp46
 70
     1
102
RTVSPost2010Prop47
 90
       50
102
RTVSPost2010PropOp47
 70
     1
102
RTVSPost2010Prop48
 90
       50
102
RTVSPost2010PropOp48
 70
     1
102
RTVSPost2010Prop49
280
     0
102
RTVSPost2010PropOp49
 70
     1
102
RTVSPost2010Prop50
 90
       50
102
RTVSPost2010PropOp50
 70
     1
102
RTVSPost2010Prop51ColorIndex
 90
      256
102
RTVSPost2010Prop51ColorRGB
 90
-16777216
102
RTVSPost2010PropOp51
 70
     0
102
RTVSPost2010Prop52
140
1.0
102
RTVSPost2010PropOp52
 70
     0
102
RTVSPost2010Prop53
 90
        2
102
RTVSPost2010PropOp53
 70
     1
102
RTVSPost2010Prop54
  1
strokes_ogs.tif
102
RTVSPost2010PropOp54
 70
     1
102
RTVSPost2010Prop55
280
     0
102
RTVSPost2010PropOp55
 70
     1
102
RTVSPost2010Prop56
140
1.0
102
RTVSPost2010PropOp56
 70
     1
102
RTVSPost2010Prop57
140
1.0
102
RTVSPost2010PropOp57
 70
     1
102
RTVSPropertyOp0
 70
     1
102
RTVSPropertyOp1
 70
     1
102
RTVSPropertyOp2
 70
     1
102
RTVSPropertyOp3
 70
     1
102
RTVSPropertyOp4
 70
     1
102
RTVSPropertyOp5
 70
     1
102
RTVSPropertyOp6
 70
     1
102
RTVSPropertyOp7
 70
     1
102
RTVSPropertyOp8
 70
     1
102
RTVSPropertyOp9
 70
     1
102
RTVSPropertyOp10
 70
     1
102
RTVSPropertyOp11
 70
     1
102
RTVSPropertyOp12
 70
     1
102
RTVSPropertyOp13
 70
     1
102
RTVSPropertyOp14
 70
     1
102
RTVSPropertyOp15
 70
     1
102
RTVSPropertyOp16
 70
     1
102
RTVSPropertyOp17
 70
     1
102
RTVSPropertyOp18
 70
     1
102
RTVSPropertyOp19
 70
     1
102
RTVSPropertyOp20
 70
     1
102
RTVSPropertyOp21
 70
     1
102
RTVSPropertyOp22
 70
     1
102
RTVSPropertyOp23
 70
     1
102
RTVSPropertyOp24
 70
     1
102
RTVSPropertyOp25
 70
     1
102
RTVSPropertyOp26
 70
     1
102
RTVSPropertyOp27
 70
     1
102
RTVSPropertyOp28
 70
     1
102
RTVSPropertyOp29
 70
     1
102
RTVSPropertyOp30
 70
     1
102
RTVSPropertyOp31
 70
     1
102
RTVSPropertyOp32
 70
     1
102
RTVSPropertyOp33
 70
     1
102
RTVSPropertyOp34
 70
     1
102
RTVSPropertyOp35
 70
     1
102
RTVSPropertyOp36
 70
     1
102
RTVSPropertyOp37
 70
     1
102
RTVSPropertyOp38
 70
     1
102
RTVSPropertyOp39
 70
     1
102
RTVSPropertyOp40
 70
     1
102
RTVSPropertyOp41
 70
     1
102
RTVSPropertyOp42
 70
     1
102
RTVSPropertyOp43
 70
     1
102
RTVSPropertyOp44
 70
     1
102
RTVSPropertyOp45
 70
     1
102
RTVSPropertyOp46
 70
     1
102
RTVSPropertyOp47
 70
     1
102
RTVSPropertyOp48
 70
     1
102
RTVSPropertyOp49
 70
     1
102
RTVSPropertyOp50
 70
     1
102
RTVSPropertyOp51
 70
     0
102
RTVSPropertyOp52
 70
     0
102
RTVSPropertyOp53
 70
     1
102
RTVSPropertyOp54
 70
     1
102
RTVSPropertyOp55
 70
     1
102
RTVSPropertyOp56
 70
     1
102
RTVSPropertyOp57
 70
     1
102
RTVSPropertyOp58
 70
     1
102
RTVSPropertyOp59
 70
     1
102
RTVSPropertyOp60
 70
     1
102
RTVSPropertyOp61
 70
     1
102
RTVSPropertyOp62
 70
     1
  0
XRECORD
  5
4FA
102
{ACAD_REACTORS
330
4F9
102
}
330
4F9
100
AcDbXrecord
280
     1
102
RTVSPost2010Prop28
280
     0
102
RTVSPost2010PropOp28
 70
     1
102
RTVSPost2010Prop29
280
     1
102
RTVSPost2010PropOp29
 70
     1
102
RTVSPost2010Prop30
280
     1
102
RTVSPost2010PropOp30
 70
     1
102
RTVSPost2010Prop31
280
     0
102
RTVSPost2010PropOp31
 70
     1
102
RTVSPost2010Prop32
280
     0
102
RTVSPost2010PropOp32
 70
     1
102
RTVSPost2010Prop33
280
     0
102
RTVSPost2010PropOp33
 70
     1
102
RTVSPost2010Prop34
280
     0
102
RTVSPost2010PropOp34
 70
     1
102
RTVSPost2010Prop35
280
     0
102
RTVSPost2010PropOp35
 70
     1
102
RTVSPost2010Prop36
280
     0
102
RTVSPost2010PropOp36
 70
     1
102
RTVSPost2010Prop37
 90
       50
102
RTVSPost2010PropOp37
 70
     1
102
RTVSPost2010Prop38
140
0.0
102
RTVSPost2010PropOp38
 70
     1
102
RTVSPost2010Prop39
140
1.0
102
RTVSPost2010PropOp39
 70
     1
102
RTVSPost2010Prop40
 90
        0
102
RTVSPost2010PropOp40
 70
     1
102
RTVSPost2010Prop41ColorIndex
 90
       18
102
RTVSPost2010Prop41ColorRGB
 90
        0
102
RTVSPost2010PropOp41
 70
     1
102
RTVSPost2010Prop42
 90
       50
102
RTVSPost2010PropOp42
 70
     1
102
RTVSPost2010Prop43
 90
        3
102
RTVSPost2010PropOp43
 70
     1
102
RTVSPost2010Prop44ColorIndex
 90
        5
102
RTVSPost2010Prop44ColorRGB
 90
      255
102
RTVSPost2010PropOp44
 70
     1
102
RTVSPost2010Prop45
280
     0
102
RTVSPost2010PropOp45
 70
     1
102
RTVSPost2010Prop46
 90
       50
102
RTVSPost2010PropOp46
 70
     1
102
RTVSPost2010Prop47
 90
       50
102
RTVSPost2010PropOp47
 70
     1
102
RTVSPost2010Prop48
 90
       50
102
RTVSPost2010PropOp48
 70
     1
102
RTVSPost2010Prop49
280
     0
102
RTVSPost2010PropOp49
 70
     1
102
RTVSPost2010Prop50
 90
       50
102
RTVSPost2010PropOp50
 70
     1
102
RTVSPost2010Prop51ColorIndex
 90
      256
102
RTVSPost2010Prop51ColorRGB
 90
-16777216
102
RTVSPost2010PropOp51
 70
     0
102
RTVSPost2010Prop52
140
1.0
102
RTVSPost2010PropOp52
 70
     0
102
RTVSPost2010Prop53
 90
        2
102
RTVSPost2010PropOp53
 70
     1
102
RTVSPost2010Prop54
  1
strokes_ogs.tif
102
RTVSPost2010PropOp54
 70
     1
102
RTVSPost2010Prop55
280
     0
102
RTVSPost2010PropOp55
 70
     1
102
RTVSPost2010Prop56
140
1.0
102
RTVSPost2010PropOp56
 70
     1
102
RTVSPost2010Prop57
140
1.0
102
RTVSPost2010PropOp57
 70
     1
102
RTVSPropertyOp0
 70
     1
102
RTVSPropertyOp1
 70
     1
102
RTVSPropertyOp2
 70
     1
102
RTVSPropertyOp3
 70
     1
102
RTVSPropertyOp4
 70
     1
102
RTVSPropertyOp5
 70
     1
102
RTVSPropertyOp6
 70
     1
102
RTVSPropertyOp7
 70
     1
102
RTVSPropertyOp8
 70
     1
102
RTVSPropertyOp9
 70
     1
102
RTVSPropertyOp10
 70
     1
102
RTVSPropertyOp11
 70
     1
102
RTVSPropertyOp12
 70
     1
102
RTVSPropertyOp13
 70
     1
102
RTVSPropertyOp14
 70
     1
102
RTVSPropertyOp15
 70
     1
102
RTVSPropertyOp16
 70
     1
102
RTVSPropertyOp17
 70
     1
102
RTVSPropertyOp18
 70
     1
102
RTVSPropertyOp19
 70
     1
102
RTVSPropertyOp20
 70
     1
102
RTVSPropertyOp21
 70
     1
102
RTVSPropertyOp22
 70
     1
102
RTVSPropertyOp23
 70
     1
102
RTVSPropertyOp24
 70
     1
102
RTVSPropertyOp25
 70
     1
102
RTVSPropertyOp26
 70
     1
102
RTVSPropertyOp27
 70
     1
102
RTVSPropertyOp28
 70
     1
102
RTVSPropertyOp29
 70
     1
102
RTVSPropertyOp30
 70
     1
102
RTVSPropertyOp31
 70
     1
102
RTVSPropertyOp32
 70
     1
102
RTVSPropertyOp33
 70
     1
102
RTVSPropertyOp34
 70
     1
102
RTVSPropertyOp35
 70
     1
102
RTVSPropertyOp36
 70
     1
102
RTVSPropertyOp37
 70
     1
102
RTVSPropertyOp38
 70
     1
102
RTVSPropertyOp39
 70
     1
102
RTVSPropertyOp40
 70
     1
102
RTVSPropertyOp41
 70
     1
102
RTVSPropertyOp42
 70
     1
102
RTVSPropertyOp43
 70
     1
102
RTVSPropertyOp44
 70
     1
102
RTVSPropertyOp45
 70
     1
102
RTVSPropertyOp46
 70
     1
102
RTVSPropertyOp47
 70
     1
102
RTVSPropertyOp48
 70
     1
102
RTVSPropertyOp49
 70
     1
102
RTVSPropertyOp50
 70
     1
102
RTVSPropertyOp51
 70
     0
102
RTVSPropertyOp52
 70
     0
102
RTVSPropertyOp53
 70
     1
102
RTVSPropertyOp54
 70
     1
102
RTVSPropertyOp55
 70
     1
102
RTVSPropertyOp56
 70
     1
102
RTVSPropertyOp57
 70
     1
102
RTVSPropertyOp58
 70
     1
102
RTVSPropertyOp59
 70
     1
102
RTVSPropertyOp60
 70
     1
102
RTVSPropertyOp61
 70
     1
102
RTVSPropertyOp62
 70
     1
  0
XRECORD
  5
4FE
102
{ACAD_REACTORS
330
4FD
102
}
330
4FD
100
AcDbXrecord
280
     1
102
RTVSPost2010Prop28
280
     0
102
RTVSPost2010PropOp28
 70
     1
102
RTVSPost2010Prop29
280
     1
102
RTVSPost2010PropOp29
 70
     1
102
RTVSPost2010Prop30
280
     1
102
RTVSPost2010PropOp30
 70
     1
102
RTVSPost2010Prop31
280
     0
102
RTVSPost2010PropOp31
 70
     1
102
RTVSPost2010Prop32
280
     0
102
RTVSPost2010PropOp32
 70
     1
102
RTVSPost2010Prop33
280
     0
102
RTVSPost2010PropOp33
 70
     1
102
RTVSPost2010Prop34
280
     0
102
RTVSPost2010PropOp34
 70
     1
102
RTVSPost2010Prop35
280
     0
102
RTVSPost2010PropOp35
 70
     1
102
RTVSPost2010Prop36
280
     0
102
RTVSPost2010PropOp36
 70
     1
102
RTVSPost2010Prop37
 90
       50
102
RTVSPost2010PropOp37
 70
     1
102
RTVSPost2010Prop38
140
0.0
102
RTVSPost2010PropOp38
 70
     1
102
RTVSPost2010Prop39
140
1.0
102
RTVSPost2010PropOp39
 70
     1
102
RTVSPost2010Prop40
 90
        0
102
RTVSPost2010PropOp40
 70
     1
102
RTVSPost2010Prop41ColorIndex
 90
       18
102
RTVSPost2010Prop41ColorRGB
 90
        0
102
RTVSPost2010PropOp41
 70
     1
102
RTVSPost2010Prop42
 90
       50
102
RTVSPost2010PropOp42
 70
     1
102
RTVSPost2010Prop43
 90
        3
102
RTVSPost2010PropOp43
 70
     1
102
RTVSPost2010Prop44ColorIndex
 90
        5
102
RTVSPost2010Prop44ColorRGB
 90
      255
102
RTVSPost2010PropOp44
 70
     1
102
RTVSPost2010Prop45
280
     0
102
RTVSPost2010PropOp45
 70
     1
102
RTVSPost2010Prop46
 90
       50
102
RTVSPost2010PropOp46
 70
     1
102
RTVSPost2010Prop47
 90
       50
102
RTVSPost2010PropOp47
 70
     1
102
RTVSPost2010Prop48
 90
       50
102
RTVSPost2010PropOp48
 70
     1
102
RTVSPost2010Prop49
280
     0
102
RTVSPost2010PropOp49
 70
     1
102
RTVSPost2010Prop50
 90
       50
102
RTVSPost2010PropOp50
 70
     1
102
RTVSPost2010Prop51ColorIndex
 90
      256
102
RTVSPost2010Prop51ColorRGB
 90
-16777216
102
RTVSPost2010PropOp51
 70
     0
102
RTVSPost2010Prop52
140
1.0
102
RTVSPost2010PropOp52
 70
     0
102
RTVSPost2010Prop53
 90
        2
102
RTVSPost2010PropOp53
 70
     1
102
RTVSPost2010Prop54
  1
strokes_ogs.tif
102
RTVSPost2010PropOp54
 70
     1
102
RTVSPost2010Prop55
280
     0
102
RTVSPost2010PropOp55
 70
     1
102
RTVSPost2010Prop56
140
1.0
102
RTVSPost2010PropOp56
 70
     1
102
RTVSPost2010Prop57
140
1.0
102
RTVSPost2010PropOp57
 70
     1
102
RTVSPropertyOp0
 70
     1
102
RTVSPropertyOp1
 70
     1
102
RTVSPropertyOp2
 70
     1
102
RTVSPropertyOp3
 70
     1
102
RTVSPropertyOp4
 70
     1
102
RTVSPropertyOp5
 70
     1
102
RTVSPropertyOp6
 70
     1
102
RTVSPropertyOp7
 70
     1
102
RTVSPropertyOp8
 70
     1
102
RTVSPropertyOp9
 70
     1
102
RTVSPropertyOp10
 70
     1
102
RTVSPropertyOp11
 70
     1
102
RTVSPropertyOp12
 70
     1
102
RTVSPropertyOp13
 70
     1
102
RTVSPropertyOp14
 70
     1
102
RTVSPropertyOp15
 70
     1
102
RTVSPropertyOp16
 70
     1
102
RTVSPropertyOp17
 70
     1
102
RTVSPropertyOp18
 70
     1
102
RTVSPropertyOp19
 70
     1
102
RTVSPropertyOp20
 70
     1
102
RTVSPropertyOp21
 70
     1
102
RTVSPropertyOp22
 70
     1
102
RTVSPropertyOp23
 70
     1
102
RTVSPropertyOp24
 70
     1
102
RTVSPropertyOp25
 70
     1
102
RTVSPropertyOp26
 70
     1
102
RTVSPropertyOp27
 70
     1
102
RTVSPropertyOp28
 70
     1
102
RTVSPropertyOp29
 70
     1
102
RTVSPropertyOp30
 70
     1
102
RTVSPropertyOp31
 70
     1
102
RTVSPropertyOp32
 70
     1
102
RTVSPropertyOp33
 70
     1
102
RTVSPropertyOp34
 70
     1
102
RTVSPropertyOp35
 70
     1
102
RTVSPropertyOp36
 70
     1
102
RTVSPropertyOp37
 70
     1
102
RTVSPropertyOp38
 70
     1
102
RTVSPropertyOp39
 70
     1
102
RTVSPropertyOp40
 70
     1
102
RTVSPropertyOp41
 70
     1
102
RTVSPropertyOp42
 70
     1
102
RTVSPropertyOp43
 70
     1
102
RTVSPropertyOp44
 70
     1
102
RTVSPropertyOp45
 70
     1
102
RTVSPropertyOp46
 70
     1
102
RTVSPropertyOp47
 70
     1
102
RTVSPropertyOp48
 70
     1
102
RTVSPropertyOp49
 70
     1
102
RTVSPropertyOp50
 70
     1
102
RTVSPropertyOp51
 70
     0
102
RTVSPropertyOp52
 70
     0
102
RTVSPropertyOp53
 70
     1
102
RTVSPropertyOp54
 70
     1
102
RTVSPropertyOp55
 70
     1
102
RTVSPropertyOp56
 70
     1
102
RTVSPropertyOp57
 70
     1
102
RTVSPropertyOp58
 70
     1
102
RTVSPropertyOp59
 70
     1
102
RTVSPropertyOp60
 70
     1
102
RTVSPropertyOp61
 70
     1
102
RTVSPropertyOp62
 70
     1
  0
XRECORD
  5
50E
102
{ACAD_REACTORS
330
50D
102
}
330
50D
100
AcDbXrecord
280
     1
102
RTVSPost2010Prop28
280
     0
102
RTVSPost2010PropOp28
 70
     1
102
RTVSPost2010Prop29
280
     1
102
RTVSPost2010PropOp29
 70
     1
102
RTVSPost2010Prop30
280
     1
102
RTVSPost2010PropOp30
 70
     1
102
RTVSPost2010Prop31
280
     0
102
RTVSPost2010PropOp31
 70
     1
102
RTVSPost2010Prop32
280
     0
102
RTVSPost2010PropOp32
 70
     1
102
RTVSPost2010Prop33
280
     0
102
RTVSPost2010PropOp33
 70
     1
102
RTVSPost2010Prop34
280
     0
102
RTVSPost2010PropOp34
 70
     1
102
RTVSPost2010Prop35
280
     0
102
RTVSPost2010PropOp35
 70
     1
102
RTVSPost2010Prop36
280
     0
102
RTVSPost2010PropOp36
 70
     1
102
RTVSPost2010Prop37
 90
       50
102
RTVSPost2010PropOp37
 70
     1
102
RTVSPost2010Prop38
140
0.0
102
RTVSPost2010PropOp38
 70
     1
102
RTVSPost2010Prop39
140
1.0
102
RTVSPost2010PropOp39
 70
     1
102
RTVSPost2010Prop40
 90
        0
102
RTVSPost2010PropOp40
 70
     1
102
RTVSPost2010Prop41ColorIndex
 90
       18
102
RTVSPost2010Prop41ColorRGB
 90
        0
102
RTVSPost2010PropOp41
 70
     1
102
RTVSPost2010Prop42
 90
       50
102
RTVSPost2010PropOp42
 70
     1
102
RTVSPost2010Prop43
 90
        3
102
RTVSPost2010PropOp43
 70
     1
102
RTVSPost2010Prop44ColorIndex
 90
        5
102
RTVSPost2010Prop44ColorRGB
 90
      255
102
RTVSPost2010PropOp44
 70
     1
102
RTVSPost2010Prop45
280
     0
102
RTVSPost2010PropOp45
 70
     1
102
RTVSPost2010Prop46
 90
       50
102
RTVSPost2010PropOp46
 70
     1
102
RTVSPost2010Prop47
 90
       50
102
RTVSPost2010PropOp47
 70
     1
102
RTVSPost2010Prop48
 90
       50
102
RTVSPost2010PropOp48
 70
     1
102
RTVSPost2010Prop49
280
     0
102
RTVSPost2010PropOp49
 70
     1
102
RTVSPost2010Prop50
 90
       50
102
RTVSPost2010PropOp50
 70
     1
102
RTVSPost2010Prop51ColorIndex
 90
      256
102
RTVSPost2010Prop51ColorRGB
 90
-16777216
102
RTVSPost2010PropOp51
 70
     0
102
RTVSPost2010Prop52
140
1.0
102
RTVSPost2010PropOp52
 70
     0
102
RTVSPost2010Prop53
 90
        2
102
RTVSPost2010PropOp53
 70
     1
102
RTVSPost2010Prop54
  1
strokes_ogs.tif
102
RTVSPost2010PropOp54
 70
     1
102
RTVSPost2010Prop55
280
     0
102
RTVSPost2010PropOp55
 70
     1
102
RTVSPost2010Prop56
140
1.0
102
RTVSPost2010PropOp56
 70
     1
102
RTVSPost2010Prop57
140
1.0
102
RTVSPost2010PropOp57
 70
     1
102
RTVSPropertyOp0
 70
     0
102
RTVSPropertyOp1
 70
     0
102
RTVSPropertyOp2
 70
     0
102
RTVSPropertyOp3
 70
     0
102
RTVSPropertyOp4
 70
     0
102
RTVSPropertyOp5
 70
     0
102
RTVSPropertyOp6
 70
     0
102
RTVSPropertyOp7
 70
     0
102
RTVSPropertyOp8
 70
     0
102
RTVSPropertyOp9
 70
     0
102
RTVSPropertyOp10
 70
     0
102
RTVSPropertyOp11
 70
     0
102
RTVSPropertyOp12
 70
     0
102
RTVSPropertyOp13
 70
     0
102
RTVSPropertyOp14
 70
     2
102
RTVSPropertyOp15
 70
     0
102
RTVSPropertyOp16
 70
     0
102
RTVSPropertyOp17
 70
     0
102
RTVSPropertyOp18
 70
     0
102
RTVSPropertyOp19
 70
     0
102
RTVSPropertyOp20
 70
     0
102
RTVSPropertyOp21
 70
     0
102
RTVSPropertyOp22
 70
     0
102
RTVSPropertyOp23
 70
     0
102
RTVSPropertyOp24
 70
     0
102
RTVSPropertyOp25
 70
     0
102
RTVSPropertyOp26
 70
     0
102
RTVSPropertyOp27
 70
     0
102
RTVSPropertyOp28
 70
     1
102
RTVSPropertyOp29
 70
     1
102
RTVSPropertyOp30
 70
     1
102
RTVSPropertyOp31
 70
     1
102
RTVSPropertyOp32
 70
     1
102
RTVSPropertyOp33
 70
     1
102
RTVSPropertyOp34
 70
     1
102
RTVSPropertyOp35
 70
     1
102
RTVSPropertyOp36
 70
     1
102
RTVSPropertyOp37
 70
     1
102
RTVSPropertyOp38
 70
     1
102
RTVSPropertyOp39
 70
     1
102
RTVSPropertyOp40
 70
     1
102
RTVSPropertyOp41
 70
     1
102
RTVSPropertyOp42
 70
     1
102
RTVSPropertyOp43
 70
     1
102
RTVSPropertyOp44
 70
     1
102
RTVSPropertyOp45
 70
     1
102
RTVSPropertyOp46
 70
     1
102
RTVSPropertyOp47
 70
     1
102
RTVSPropertyOp48
 70
     1
102
RTVSPropertyOp49
 70
     1
102
RTVSPropertyOp50
 70
     1
102
RTVSPropertyOp51
 70
     0
102
RTVSPropertyOp52
 70
     0
102
RTVSPropertyOp53
 70
     1
102
RTVSPropertyOp54
 70
     1
102
RTVSPropertyOp55
 70
     1
102
RTVSPropertyOp56
 70
     1
102
RTVSPropertyOp57
 70
     1
102
RTVSPropertyOp58
 70
     1
102
RTVSPropertyOp59
 70
     1
102
RTVSPropertyOp60
 70
     1
102
RTVSPropertyOp61
 70
     1
102
RTVSPropertyOp62
 70
     1
  0
XRECORD
  5
506
102
{ACAD_REACTORS
330
505
102
}
330
505
100
AcDbXrecord
280
     1
102
RTVSPost2010Prop28
280
     0
102
RTVSPost2010PropOp28
 70
     1
102
RTVSPost2010Prop29
280
     1
102
RTVSPost2010PropOp29
 70
     1
102
RTVSPost2010Prop30
280
     1
102
RTVSPost2010PropOp30
 70
     1
102
RTVSPost2010Prop31
280
     0
102
RTVSPost2010PropOp31
 70
     1
102
RTVSPost2010Prop32
280
     0
102
RTVSPost2010PropOp32
 70
     1
102
RTVSPost2010Prop33
280
     0
102
RTVSPost2010PropOp33
 70
     1
102
RTVSPost2010Prop34
280
     0
102
RTVSPost2010PropOp34
 70
     1
102
RTVSPost2010Prop35
280
     0
102
RTVSPost2010PropOp35
 70
     1
102
RTVSPost2010Prop36
280
     0
102
RTVSPost2010PropOp36
 70
     1
102
RTVSPost2010Prop37
 90
       50
102
RTVSPost2010PropOp37
 70
     1
102
RTVSPost2010Prop38
140
0.0
102
RTVSPost2010PropOp38
 70
     1
102
RTVSPost2010Prop39
140
1.0
102
RTVSPost2010PropOp39
 70
     1
102
RTVSPost2010Prop40
 90
        0
102
RTVSPost2010PropOp40
 70
     1
102
RTVSPost2010Prop41ColorIndex
 90
       18
102
RTVSPost2010Prop41ColorRGB
 90
        0
102
RTVSPost2010PropOp41
 70
     1
102
RTVSPost2010Prop42
 90
       50
102
RTVSPost2010PropOp42
 70
     1
102
RTVSPost2010Prop43
 90
        3
102
RTVSPost2010PropOp43
 70
     1
102
RTVSPost2010Prop44ColorIndex
 90
        5
102
RTVSPost2010Prop44ColorRGB
 90
      255
102
RTVSPost2010PropOp44
 70
     1
102
RTVSPost2010Prop45
280
     0
102
RTVSPost2010PropOp45
 70
     1
102
RTVSPost2010Prop46
 90
       50
102
RTVSPost2010PropOp46
 70
     1
102
RTVSPost2010Prop47
 90
       50
102
RTVSPost2010PropOp47
 70
     1
102
RTVSPost2010Prop48
 90
       50
102
RTVSPost2010PropOp48
 70
     1
102
RTVSPost2010Prop49
280
     0
102
RTVSPost2010PropOp49
 70
     1
102
RTVSPost2010Prop50
 90
       50
102
RTVSPost2010PropOp50
 70
     1
102
RTVSPost2010Prop51ColorIndex
 90
      256
102
RTVSPost2010Prop51ColorRGB
 90
-16777216
102
RTVSPost2010PropOp51
 70
     0
102
RTVSPost2010Prop52
140
1.0
102
RTVSPost2010PropOp52
 70
     0
102
RTVSPost2010Prop53
 90
        2
102
RTVSPost2010PropOp53
 70
     1
102
RTVSPost2010Prop54
  1
strokes_ogs.tif
102
RTVSPost2010PropOp54
 70
     1
102
RTVSPost2010Prop55
280
     0
102
RTVSPost2010PropOp55
 70
     1
102
RTVSPost2010Prop56
140
1.0
102
RTVSPost2010PropOp56
 70
     1
102
RTVSPost2010Prop57
140
1.0
102
RTVSPost2010PropOp57
 70
     1
102
RTVSPropertyOp0
 70
     1
102
RTVSPropertyOp1
 70
     1
102
RTVSPropertyOp2
 70
     1
102
RTVSPropertyOp3
 70
     1
102
RTVSPropertyOp4
 70
     1
102
RTVSPropertyOp5
 70
     1
102
RTVSPropertyOp6
 70
     1
102
RTVSPropertyOp7
 70
     1
102
RTVSPropertyOp8
 70
     1
102
RTVSPropertyOp9
 70
     1
102
RTVSPropertyOp10
 70
     1
102
RTVSPropertyOp11
 70
     1
102
RTVSPropertyOp12
 70
     1
102
RTVSPropertyOp13
 70
     1
102
RTVSPropertyOp14
 70
     1
102
RTVSPropertyOp15
 70
     1
102
RTVSPropertyOp16
 70
     1
102
RTVSPropertyOp17
 70
     1
102
RTVSPropertyOp18
 70
     1
102
RTVSPropertyOp19
 70
     1
102
RTVSPropertyOp20
 70
     1
102
RTVSPropertyOp21
 70
     1
102
RTVSPropertyOp22
 70
     1
102
RTVSPropertyOp23
 70
     1
102
RTVSPropertyOp24
 70
     1
102
RTVSPropertyOp25
 70
     1
102
RTVSPropertyOp26
 70
     1
102
RTVSPropertyOp27
 70
     1
102
RTVSPropertyOp28
 70
     1
102
RTVSPropertyOp29
 70
     1
102
RTVSPropertyOp30
 70
     1
102
RTVSPropertyOp31
 70
     1
102
RTVSPropertyOp32
 70
     1
102
RTVSPropertyOp33
 70
     1
102
RTVSPropertyOp34
 70
     1
102
RTVSPropertyOp35
 70
     1
102
RTVSPropertyOp36
 70
     1
102
RTVSPropertyOp37
 70
     1
102
RTVSPropertyOp38
 70
     1
102
RTVSPropertyOp39
 70
     1
102
RTVSPropertyOp40
 70
     1
102
RTVSPropertyOp41
 70
     1
102
RTVSPropertyOp42
 70
     1
102
RTVSPropertyOp43
 70
     1
102
RTVSPropertyOp44
 70
     1
102
RTVSPropertyOp45
 70
     1
102
RTVSPropertyOp46
 70
     1
102
RTVSPropertyOp47
 70
     1
102
RTVSPropertyOp48
 70
     1
102
RTVSPropertyOp49
 70
     1
102
RTVSPropertyOp50
 70
     1
102
RTVSPropertyOp51
 70
     0
102
RTVSPropertyOp52
 70
     0
102
RTVSPropertyOp53
 70
     1
102
RTVSPropertyOp54
 70
     1
102
RTVSPropertyOp55
 70
     1
102
RTVSPropertyOp56
 70
     1
102
RTVSPropertyOp57
 70
     1
102
RTVSPropertyOp58
 70
     1
102
RTVSPropertyOp59
 70
     1
102
RTVSPropertyOp60
 70
     1
102
RTVSPropertyOp61
 70
     1
102
RTVSPropertyOp62
 70
     1
  0
XRECORD
  5
4EA
102
{ACAD_REACTORS
330
4E9
102
}
330
4E9
100
AcDbXrecord
280
     1
102
RTVSPost2010Prop28
280
     0
102
RTVSPost2010PropOp28
 70
     1
102
RTVSPost2010Prop29
280
     1
102
RTVSPost2010PropOp29
 70
     1
102
RTVSPost2010Prop30
280
     1
102
RTVSPost2010PropOp30
 70
     1
102
RTVSPost2010Prop31
280
     0
102
RTVSPost2010PropOp31
 70
     1
102
RTVSPost2010Prop32
280
     0
102
RTVSPost2010PropOp32
 70
     1
102
RTVSPost2010Prop33
280
     0
102
RTVSPost2010PropOp33
 70
     1
102
RTVSPost2010Prop34
280
     0
102
RTVSPost2010PropOp34
 70
     1
102
RTVSPost2010Prop35
280
     0
102
RTVSPost2010PropOp35
 70
     1
102
RTVSPost2010Prop36
280
     0
102
RTVSPost2010PropOp36
 70
     1
102
RTVSPost2010Prop37
 90
       50
102
RTVSPost2010PropOp37
 70
     1
102
RTVSPost2010Prop38
140
0.0
102
RTVSPost2010PropOp38
 70
     1
102
RTVSPost2010Prop39
140
1.0
102
RTVSPost2010PropOp39
 70
     1
102
RTVSPost2010Prop40
 90
        0
102
RTVSPost2010PropOp40
 70
     1
102
RTVSPost2010Prop41ColorIndex
 90
       18
102
RTVSPost2010Prop41ColorRGB
 90
        0
102
RTVSPost2010PropOp41
 70
     1
102
RTVSPost2010Prop42
 90
       50
102
RTVSPost2010PropOp42
 70
     1
102
RTVSPost2010Prop43
 90
        3
102
RTVSPost2010PropOp43
 70
     1
102
RTVSPost2010Prop44ColorIndex
 90
        5
102
RTVSPost2010Prop44ColorRGB
 90
      255
102
RTVSPost2010PropOp44
 70
     1
102
RTVSPost2010Prop45
280
     0
102
RTVSPost2010PropOp45
 70
     1
102
RTVSPost2010Prop46
 90
       50
102
RTVSPost2010PropOp46
 70
     1
102
RTVSPost2010Prop47
 90
       50
102
RTVSPost2010PropOp47
 70
     1
102
RTVSPost2010Prop48
 90
       50
102
RTVSPost2010PropOp48
 70
     1
102
RTVSPost2010Prop49
280
     0
102
RTVSPost2010PropOp49
 70
     1
102
RTVSPost2010Prop50
 90
       50
102
RTVSPost2010PropOp50
 70
     1
102
RTVSPost2010Prop51ColorIndex
 90
      256
102
RTVSPost2010Prop51ColorRGB
 90
-16777216
102
RTVSPost2010PropOp51
 70
     0
102
RTVSPost2010Prop52
140
1.0
102
RTVSPost2010PropOp52
 70
     0
102
RTVSPost2010Prop53
 90
        2
102
RTVSPost2010PropOp53
 70
     1
102
RTVSPost2010Prop54
  1
strokes_ogs.tif
102
RTVSPost2010PropOp54
 70
     1
102
RTVSPost2010Prop55
280
     0
102
RTVSPost2010PropOp55
 70
     1
102
RTVSPost2010Prop56
140
1.0
102
RTVSPost2010PropOp56
 70
     1
102
RTVSPost2010Prop57
140
1.0
102
RTVSPost2010PropOp57
 70
     1
102
RTVSPropertyOp0
 70
     1
102
RTVSPropertyOp1
 70
     1
102
RTVSPropertyOp2
 70
     1
102
RTVSPropertyOp3
 70
     1
102
RTVSPropertyOp4
 70
     1
102
RTVSPropertyOp5
 70
     1
102
RTVSPropertyOp6
 70
     1
102
RTVSPropertyOp7
 70
     1
102
RTVSPropertyOp8
 70
     1
102
RTVSPropertyOp9
 70
     1
102
RTVSPropertyOp10
 70
     1
102
RTVSPropertyOp11
 70
     1
102
RTVSPropertyOp12
 70
     1
102
RTVSPropertyOp13
 70
     1
102
RTVSPropertyOp14
 70
     1
102
RTVSPropertyOp15
 70
     1
102
RTVSPropertyOp16
 70
     1
102
RTVSPropertyOp17
 70
     1
102
RTVSPropertyOp18
 70
     1
102
RTVSPropertyOp19
 70
     1
102
RTVSPropertyOp20
 70
     1
102
RTVSPropertyOp21
 70
     1
102
RTVSPropertyOp22
 70
     1
102
RTVSPropertyOp23
 70
     1
102
RTVSPropertyOp24
 70
     1
102
RTVSPropertyOp25
 70
     1
102
RTVSPropertyOp26
 70
     1
102
RTVSPropertyOp27
 70
     1
102
RTVSPropertyOp28
 70
     1
102
RTVSPropertyOp29
 70
     1
102
RTVSPropertyOp30
 70
     1
102
RTVSPropertyOp31
 70
     1
102
RTVSPropertyOp32
 70
     1
102
RTVSPropertyOp33
 70
     1
102
RTVSPropertyOp34
 70
     1
102
RTVSPropertyOp35
 70
     1
102
RTVSPropertyOp36
 70
     1
102
RTVSPropertyOp37
 70
     1
102
RTVSPropertyOp38
 70
     1
102
RTVSPropertyOp39
 70
     1
102
RTVSPropertyOp40
 70
     1
102
RTVSPropertyOp41
 70
     1
102
RTVSPropertyOp42
 70
     1
102
RTVSPropertyOp43
 70
     1
102
RTVSPropertyOp44
 70
     1
102
RTVSPropertyOp45
 70
     1
102
RTVSPropertyOp46
 70
     1
102
RTVSPropertyOp47
 70
     1
102
RTVSPropertyOp48
 70
     1
102
RTVSPropertyOp49
 70
     1
102
RTVSPropertyOp50
 70
     1
102
RTVSPropertyOp51
 70
     0
102
RTVSPropertyOp52
 70
     0
102
RTVSPropertyOp53
 70
     1
102
RTVSPropertyOp54
 70
     1
102
RTVSPropertyOp55
 70
     1
102
RTVSPropertyOp56
 70
     1
102
RTVSPropertyOp57
 70
     1
102
RTVSPropertyOp58
 70
     1
102
RTVSPropertyOp59
 70
     1
102
RTVSPropertyOp60
 70
     1
102
RTVSPropertyOp61
 70
     1
102
RTVSPropertyOp62
 70
     1
  0
XRECORD
  5
4EC
102
{ACAD_REACTORS
330
4EB
102
}
330
4EB
100
AcDbXrecord
280
     1
102
RTVSPost2010Prop28
280
     0
102
RTVSPost2010PropOp28
 70
     1
102
RTVSPost2010Prop29
280
     1
102
RTVSPost2010PropOp29
 70
     1
102
RTVSPost2010Prop30
280
     1
102
RTVSPost2010PropOp30
 70
     1
102
RTVSPost2010Prop31
280
     0
102
RTVSPost2010PropOp31
 70
     1
102
RTVSPost2010Prop32
280
     0
102
RTVSPost2010PropOp32
 70
     1
102
RTVSPost2010Prop33
280
     0
102
RTVSPost2010PropOp33
 70
     1
102
RTVSPost2010Prop34
280
     0
102
RTVSPost2010PropOp34
 70
     1
102
RTVSPost2010Prop35
280
     0
102
RTVSPost2010PropOp35
 70
     1
102
RTVSPost2010Prop36
280
     0
102
RTVSPost2010PropOp36
 70
     1
102
RTVSPost2010Prop37
 90
       50
102
RTVSPost2010PropOp37
 70
     1
102
RTVSPost2010Prop38
140
0.0
102
RTVSPost2010PropOp38
 70
     1
102
RTVSPost2010Prop39
140
1.0
102
RTVSPost2010PropOp39
 70
     1
102
RTVSPost2010Prop40
 90
        0
102
RTVSPost2010PropOp40
 70
     1
102
RTVSPost2010Prop41ColorIndex
 90
       18
102
RTVSPost2010Prop41ColorRGB
 90
        0
102
RTVSPost2010PropOp41
 70
     1
102
RTVSPost2010Prop42
 90
       50
102
RTVSPost2010PropOp42
 70
     1
102
RTVSPost2010Prop43
 90
        3
102
RTVSPost2010PropOp43
 70
     1
102
RTVSPost2010Prop44ColorIndex
 90
        5
102
RTVSPost2010Prop44ColorRGB
 90
      255
102
RTVSPost2010PropOp44
 70
     1
102
RTVSPost2010Prop45
280
     0
102
RTVSPost2010PropOp45
 70
     1
102
RTVSPost2010Prop46
 90
       50
102
RTVSPost2010PropOp46
 70
     1
102
RTVSPost2010Prop47
 90
       50
102
RTVSPost2010PropOp47
 70
     1
102
RTVSPost2010Prop48
 90
       50
102
RTVSPost2010PropOp48
 70
     1
102
RTVSPost2010Prop49
280
     0
102
RTVSPost2010PropOp49
 70
     1
102
RTVSPost2010Prop50
 90
       50
102
RTVSPost2010PropOp50
 70
     1
102
RTVSPost2010Prop51ColorIndex
 90
      256
102
RTVSPost2010Prop51ColorRGB
 90
-16777216
102
RTVSPost2010PropOp51
 70
     0
102
RTVSPost2010Prop52
140
1.0
102
RTVSPost2010PropOp52
 70
     0
102
RTVSPost2010Prop53
 90
        2
102
RTVSPost2010PropOp53
 70
     1
102
RTVSPost2010Prop54
  1
strokes_ogs.tif
102
RTVSPost2010PropOp54
 70
     1
102
RTVSPost2010Prop55
280
     0
102
RTVSPost2010PropOp55
 70
     1
102
RTVSPost2010Prop56
140
1.0
102
RTVSPost2010PropOp56
 70
     1
102
RTVSPost2010Prop57
140
1.0
102
RTVSPost2010PropOp57
 70
     1
102
RTVSPropertyOp0
 70
     1
102
RTVSPropertyOp1
 70
     1
102
RTVSPropertyOp2
 70
     1
102
RTVSPropertyOp3
 70
     1
102
RTVSPropertyOp4
 70
     1
102
RTVSPropertyOp5
 70
     1
102
RTVSPropertyOp6
 70
     1
102
RTVSPropertyOp7
 70
     1
102
RTVSPropertyOp8
 70
     1
102
RTVSPropertyOp9
 70
     1
102
RTVSPropertyOp10
 70
     1
102
RTVSPropertyOp11
 70
     1
102
RTVSPropertyOp12
 70
     1
102
RTVSPropertyOp13
 70
     1
102
RTVSPropertyOp14
 70
     1
102
RTVSPropertyOp15
 70
     1
102
RTVSPropertyOp16
 70
     1
102
RTVSPropertyOp17
 70
     1
102
RTVSPropertyOp18
 70
     1
102
RTVSPropertyOp19
 70
     1
102
RTVSPropertyOp20
 70
     1
102
RTVSPropertyOp21
 70
     1
102
RTVSPropertyOp22
 70
     1
102
RTVSPropertyOp23
 70
     1
102
RTVSPropertyOp24
 70
     1
102
RTVSPropertyOp25
 70
     1
102
RTVSPropertyOp26
 70
     1
102
RTVSPropertyOp27
 70
     1
102
RTVSPropertyOp28
 70
     1
102
RTVSPropertyOp29
 70
     1
102
RTVSPropertyOp30
 70
     1
102
RTVSPropertyOp31
 70
     1
102
RTVSPropertyOp32
 70
     1
102
RTVSPropertyOp33
 70
     1
102
RTVSPropertyOp34
 70
     1
102
RTVSPropertyOp35
 70
     1
102
RTVSPropertyOp36
 70
     1
102
RTVSPropertyOp37
 70
     1
102
RTVSPropertyOp38
 70
     1
102
RTVSPropertyOp39
 70
     1
102
RTVSPropertyOp40
 70
     1
102
RTVSPropertyOp41
 70
     1
102
RTVSPropertyOp42
 70
     1
102
RTVSPropertyOp43
 70
     1
102
RTVSPropertyOp44
 70
     1
102
RTVSPropertyOp45
 70
     1
102
RTVSPropertyOp46
 70
     1
102
RTVSPropertyOp47
 70
     1
102
RTVSPropertyOp48
 70
     1
102
RTVSPropertyOp49
 70
     1
102
RTVSPropertyOp50
 70
     1
102
RTVSPropertyOp51
 70
     0
102
RTVSPropertyOp52
 70
     0
102
RTVSPropertyOp53
 70
     1
102
RTVSPropertyOp54
 70
     1
102
RTVSPropertyOp55
 70
     1
102
RTVSPropertyOp56
 70
     1
102
RTVSPropertyOp57
 70
     1
102
RTVSPropertyOp58
 70
     1
102
RTVSPropertyOp59
 70
     1
102
RTVSPropertyOp60
 70
     1
102
RTVSPropertyOp61
 70
     1
102
RTVSPropertyOp62
 70
     1
  0
XRECORD
  5
4EE
102
{ACAD_REACTORS
330
4ED
102
}
330
4ED
100
AcDbXrecord
280
     1
102
RTVSPost2010Prop28
280
     0
102
RTVSPost2010PropOp28
 70
     1
102
RTVSPost2010Prop29
280
     1
102
RTVSPost2010PropOp29
 70
     1
102
RTVSPost2010Prop30
280
     1
102
RTVSPost2010PropOp30
 70
     1
102
RTVSPost2010Prop31
280
     0
102
RTVSPost2010PropOp31
 70
     1
102
RTVSPost2010Prop32
280
     0
102
RTVSPost2010PropOp32
 70
     1
102
RTVSPost2010Prop33
280
     0
102
RTVSPost2010PropOp33
 70
     1
102
RTVSPost2010Prop34
280
     0
102
RTVSPost2010PropOp34
 70
     1
102
RTVSPost2010Prop35
280
     0
102
RTVSPost2010PropOp35
 70
     1
102
RTVSPost2010Prop36
280
     0
102
RTVSPost2010PropOp36
 70
     1
102
RTVSPost2010Prop37
 90
       50
102
RTVSPost2010PropOp37
 70
     1
102
RTVSPost2010Prop38
140
0.0
102
RTVSPost2010PropOp38
 70
     1
102
RTVSPost2010Prop39
140
1.0
102
RTVSPost2010PropOp39
 70
     1
102
RTVSPost2010Prop40
 90
        0
102
RTVSPost2010PropOp40
 70
     1
102
RTVSPost2010Prop41ColorIndex
 90
       18
102
RTVSPost2010Prop41ColorRGB
 90
        0
102
RTVSPost2010PropOp41
 70
     1
102
RTVSPost2010Prop42
 90
       50
102
RTVSPost2010PropOp42
 70
     1
102
RTVSPost2010Prop43
 90
        3
102
RTVSPost2010PropOp43
 70
     1
102
RTVSPost2010Prop44ColorIndex
 90
        5
102
RTVSPost2010Prop44ColorRGB
 90
      255
102
RTVSPost2010PropOp44
 70
     1
102
RTVSPost2010Prop45
280
     0
102
RTVSPost2010PropOp45
 70
     1
102
RTVSPost2010Prop46
 90
       50
102
RTVSPost2010PropOp46
 70
     1
102
RTVSPost2010Prop47
 90
       50
102
RTVSPost2010PropOp47
 70
     1
102
RTVSPost2010Prop48
 90
       50
102
RTVSPost2010PropOp48
 70
     1
102
RTVSPost2010Prop49
280
     0
102
RTVSPost2010PropOp49
 70
     1
102
RTVSPost2010Prop50
 90
       50
102
RTVSPost2010PropOp50
 70
     1
102
RTVSPost2010Prop51ColorIndex
 90
      256
102
RTVSPost2010Prop51ColorRGB
 90
-16777216
102
RTVSPost2010PropOp51
 70
     0
102
RTVSPost2010Prop52
140
1.0
102
RTVSPost2010PropOp52
 70
     0
102
RTVSPost2010Prop53
 90
        2
102
RTVSPost2010PropOp53
 70
     1
102
RTVSPost2010Prop54
  1
strokes_ogs.tif
102
RTVSPost2010PropOp54
 70
     1
102
RTVSPost2010Prop55
280
     0
102
RTVSPost2010PropOp55
 70
     1
102
RTVSPost2010Prop56
140
1.0
102
RTVSPost2010PropOp56
 70
     1
102
RTVSPost2010Prop57
140
1.0
102
RTVSPost2010PropOp57
 70
     1
102
RTVSPropertyOp0
 70
     1
102
RTVSPropertyOp1
 70
     1
102
RTVSPropertyOp2
 70
     1
102
RTVSPropertyOp3
 70
     1
102
RTVSPropertyOp4
 70
     1
102
RTVSPropertyOp5
 70
     1
102
RTVSPropertyOp6
 70
     1
102
RTVSPropertyOp7
 70
     1
102
RTVSPropertyOp8
 70
     1
102
RTVSPropertyOp9
 70
     1
102
RTVSPropertyOp10
 70
     1
102
RTVSPropertyOp11
 70
     1
102
RTVSPropertyOp12
 70
     1
102
RTVSPropertyOp13
 70
     1
102
RTVSPropertyOp14
 70
     1
102
RTVSPropertyOp15
 70
     1
102
RTVSPropertyOp16
 70
     1
102
RTVSPropertyOp17
 70
     1
102
RTVSPropertyOp18
 70
     1
102
RTVSPropertyOp19
 70
     1
102
RTVSPropertyOp20
 70
     1
102
RTVSPropertyOp21
 70
     1
102
RTVSPropertyOp22
 70
     1
102
RTVSPropertyOp23
 70
     1
102
RTVSPropertyOp24
 70
     1
102
RTVSPropertyOp25
 70
     1
102
RTVSPropertyOp26
 70
     1
102
RTVSPropertyOp27
 70
     1
102
RTVSPropertyOp28
 70
     1
102
RTVSPropertyOp29
 70
     1
102
RTVSPropertyOp30
 70
     1
102
RTVSPropertyOp31
 70
     1
102
RTVSPropertyOp32
 70
     1
102
RTVSPropertyOp33
 70
     1
102
RTVSPropertyOp34
 70
     1
102
RTVSPropertyOp35
 70
     1
102
RTVSPropertyOp36
 70
     1
102
RTVSPropertyOp37
 70
     1
102
RTVSPropertyOp38
 70
     1
102
RTVSPropertyOp39
 70
     1
102
RTVSPropertyOp40
 70
     1
102
RTVSPropertyOp41
 70
     1
102
RTVSPropertyOp42
 70
     1
102
RTVSPropertyOp43
 70
     1
102
RTVSPropertyOp44
 70
     1
102
RTVSPropertyOp45
 70
     1
102
RTVSPropertyOp46
 70
     1
102
RTVSPropertyOp47
 70
     1
102
RTVSPropertyOp48
 70
     1
102
RTVSPropertyOp49
 70
     1
102
RTVSPropertyOp50
 70
     1
102
RTVSPropertyOp51
 70
     0
102
RTVSPropertyOp52
 70
     0
102
RTVSPropertyOp53
 70
     1
102
RTVSPropertyOp54
 70
     1
102
RTVSPropertyOp55
 70
     1
102
RTVSPropertyOp56
 70
     1
102
RTVSPropertyOp57
 70
     1
102
RTVSPropertyOp58
 70
     1
102
RTVSPropertyOp59
 70
     1
102
RTVSPropertyOp60
 70
     1
102
RTVSPropertyOp61
 70
     1
102
RTVSPropertyOp62
 70
     1
  0
XRECORD
  5
4F0
102
{ACAD_REACTORS
330
4EF
102
}
330
4EF
100
AcDbXrecord
280
     1
102
RTVSPost2010Prop28
280
     0
102
RTVSPost2010PropOp28
 70
     1
102
RTVSPost2010Prop29
280
     1
102
RTVSPost2010PropOp29
 70
     1
102
RTVSPost2010Prop30
280
     1
102
RTVSPost2010PropOp30
 70
     1
102
RTVSPost2010Prop31
280
     0
102
RTVSPost2010PropOp31
 70
     1
102
RTVSPost2010Prop32
280
     0
102
RTVSPost2010PropOp32
 70
     1
102
RTVSPost2010Prop33
280
     0
102
RTVSPost2010PropOp33
 70
     1
102
RTVSPost2010Prop34
280
     0
102
RTVSPost2010PropOp34
 70
     1
102
RTVSPost2010Prop35
280
     0
102
RTVSPost2010PropOp35
 70
     1
102
RTVSPost2010Prop36
280
     0
102
RTVSPost2010PropOp36
 70
     1
102
RTVSPost2010Prop37
 90
       50
102
RTVSPost2010PropOp37
 70
     1
102
RTVSPost2010Prop38
140
0.0
102
RTVSPost2010PropOp38
 70
     1
102
RTVSPost2010Prop39
140
1.0
102
RTVSPost2010PropOp39
 70
     1
102
RTVSPost2010Prop40
 90
        0
102
RTVSPost2010PropOp40
 70
     1
102
RTVSPost2010Prop41ColorIndex
 90
       18
102
RTVSPost2010Prop41ColorRGB
 90
        0
102
RTVSPost2010PropOp41
 70
     1
102
RTVSPost2010Prop42
 90
       50
102
RTVSPost2010PropOp42
 70
     1
102
RTVSPost2010Prop43
 90
        3
102
RTVSPost2010PropOp43
 70
     1
102
RTVSPost2010Prop44ColorIndex
 90
        5
102
RTVSPost2010Prop44ColorRGB
 90
      255
102
RTVSPost2010PropOp44
 70
     1
102
RTVSPost2010Prop45
280
     0
102
RTVSPost2010PropOp45
 70
     1
102
RTVSPost2010Prop46
 90
       50
102
RTVSPost2010PropOp46
 70
     1
102
RTVSPost2010Prop47
 90
       50
102
RTVSPost2010PropOp47
 70
     1
102
RTVSPost2010Prop48
 90
       50
102
RTVSPost2010PropOp48
 70
     1
102
RTVSPost2010Prop49
280
     0
102
RTVSPost2010PropOp49
 70
     1
102
RTVSPost2010Prop50
 90
       50
102
RTVSPost2010PropOp50
 70
     1
102
RTVSPost2010Prop51ColorIndex
 90
      256
102
RTVSPost2010Prop51ColorRGB
 90
-16777216
102
RTVSPost2010PropOp51
 70
     0
102
RTVSPost2010Prop52
140
1.0
102
RTVSPost2010PropOp52
 70
     0
102
RTVSPost2010Prop53
 90
        2
102
RTVSPost2010PropOp53
 70
     1
102
RTVSPost2010Prop54
  1
strokes_ogs.tif
102
RTVSPost2010PropOp54
 70
     1
102
RTVSPost2010Prop55
280
     0
102
RTVSPost2010PropOp55
 70
     1
102
RTVSPost2010Prop56
140
1.0
102
RTVSPost2010PropOp56
 70
     1
102
RTVSPost2010Prop57
140
1.0
102
RTVSPost2010PropOp57
 70
     1
102
RTVSPropertyOp0
 70
     1
102
RTVSPropertyOp1
 70
     1
102
RTVSPropertyOp2
 70
     1
102
RTVSPropertyOp3
 70
     1
102
RTVSPropertyOp4
 70
     1
102
RTVSPropertyOp5
 70
     1
102
RTVSPropertyOp6
 70
     1
102
RTVSPropertyOp7
 70
     1
102
RTVSPropertyOp8
 70
     1
102
RTVSPropertyOp9
 70
     1
102
RTVSPropertyOp10
 70
     1
102
RTVSPropertyOp11
 70
     1
102
RTVSPropertyOp12
 70
     1
102
RTVSPropertyOp13
 70
     1
102
RTVSPropertyOp14
 70
     1
102
RTVSPropertyOp15
 70
     1
102
RTVSPropertyOp16
 70
     1
102
RTVSPropertyOp17
 70
     1
102
RTVSPropertyOp18
 70
     1
102
RTVSPropertyOp19
 70
     1
102
RTVSPropertyOp20
 70
     1
102
RTVSPropertyOp21
 70
     1
102
RTVSPropertyOp22
 70
     1
102
RTVSPropertyOp23
 70
     1
102
RTVSPropertyOp24
 70
     1
102
RTVSPropertyOp25
 70
     1
102
RTVSPropertyOp26
 70
     1
102
RTVSPropertyOp27
 70
     1
102
RTVSPropertyOp28
 70
     1
102
RTVSPropertyOp29
 70
     1
102
RTVSPropertyOp30
 70
     1
102
RTVSPropertyOp31
 70
     1
102
RTVSPropertyOp32
 70
     1
102
RTVSPropertyOp33
 70
     1
102
RTVSPropertyOp34
 70
     1
102
RTVSPropertyOp35
 70
     1
102
RTVSPropertyOp36
 70
     1
102
RTVSPropertyOp37
 70
     1
102
RTVSPropertyOp38
 70
     1
102
RTVSPropertyOp39
 70
     1
102
RTVSPropertyOp40
 70
     1
102
RTVSPropertyOp41
 70
     1
102
RTVSPropertyOp42
 70
     1
102
RTVSPropertyOp43
 70
     1
102
RTVSPropertyOp44
 70
     1
102
RTVSPropertyOp45
 70
     1
102
RTVSPropertyOp46
 70
     1
102
RTVSPropertyOp47
 70
     1
102
RTVSPropertyOp48
 70
     1
102
RTVSPropertyOp49
 70
     1
102
RTVSPropertyOp50
 70
     1
102
RTVSPropertyOp51
 70
     0
102
RTVSPropertyOp52
 70
     0
102
RTVSPropertyOp53
 70
     1
102
RTVSPropertyOp54
 70
     1
102
RTVSPropertyOp55
 70
     1
102
RTVSPropertyOp56
 70
     1
102
RTVSPropertyOp57
 70
     1
102
RTVSPropertyOp58
 70
     1
102
RTVSPropertyOp59
 70
     1
102
RTVSPropertyOp60
 70
     1
102
RTVSPropertyOp61
 70
     1
102
RTVSPropertyOp62
 70
     1
  0
XRECORD
  5
4F8
102
{ACAD_REACTORS
330
4F7
102
}
330
4F7
100
AcDbXrecord
280
     1
102
RTVSPost2010Prop28
280
     0
102
RTVSPost2010PropOp28
 70
     1
102
RTVSPost2010Prop29
280
     1
102
RTVSPost2010PropOp29
 70
     1
102
RTVSPost2010Prop30
280
     1
102
RTVSPost2010PropOp30
 70
     1
102
RTVSPost2010Prop31
280
     0
102
RTVSPost2010PropOp31
 70
     1
102
RTVSPost2010Prop32
280
     0
102
RTVSPost2010PropOp32
 70
     1
102
RTVSPost2010Prop33
280
     0
102
RTVSPost2010PropOp33
 70
     1
102
RTVSPost2010Prop34
280
     0
102
RTVSPost2010PropOp34
 70
     1
102
RTVSPost2010Prop35
280
     0
102
RTVSPost2010PropOp35
 70
     1
102
RTVSPost2010Prop36
280
     0
102
RTVSPost2010PropOp36
 70
     1
102
RTVSPost2010Prop37
 90
       50
102
RTVSPost2010PropOp37
 70
     1
102
RTVSPost2010Prop38
140
0.0
102
RTVSPost2010PropOp38
 70
     1
102
RTVSPost2010Prop39
140
1.0
102
RTVSPost2010PropOp39
 70
     1
102
RTVSPost2010Prop40
 90
        0
102
RTVSPost2010PropOp40
 70
     1
102
RTVSPost2010Prop41ColorIndex
 90
       18
102
RTVSPost2010Prop41ColorRGB
 90
        0
102
RTVSPost2010PropOp41
 70
     1
102
RTVSPost2010Prop42
 90
       50
102
RTVSPost2010PropOp42
 70
     1
102
RTVSPost2010Prop43
 90
        3
102
RTVSPost2010PropOp43
 70
     1
102
RTVSPost2010Prop44ColorIndex
 90
        5
102
RTVSPost2010Prop44ColorRGB
 90
      255
102
RTVSPost2010PropOp44
 70
     1
102
RTVSPost2010Prop45
280
     0
102
RTVSPost2010PropOp45
 70
     1
102
RTVSPost2010Prop46
 90
       50
102
RTVSPost2010PropOp46
 70
     1
102
RTVSPost2010Prop47
 90
       50
102
RTVSPost2010PropOp47
 70
     1
102
RTVSPost2010Prop48
 90
       50
102
RTVSPost2010PropOp48
 70
     1
102
RTVSPost2010Prop49
280
     0
102
RTVSPost2010PropOp49
 70
     1
102
RTVSPost2010Prop50
 90
       50
102
RTVSPost2010PropOp50
 70
     1
102
RTVSPost2010Prop51ColorIndex
 90
      256
102
RTVSPost2010Prop51ColorRGB
 90
-16777216
102
RTVSPost2010PropOp51
 70
     0
102
RTVSPost2010Prop52
140
1.0
102
RTVSPost2010PropOp52
 70
     0
102
RTVSPost2010Prop53
 90
        2
102
RTVSPost2010PropOp53
 70
     1
102
RTVSPost2010Prop54
  1
strokes_ogs.tif
102
RTVSPost2010PropOp54
 70
     1
102
RTVSPost2010Prop55
280
     0
102
RTVSPost2010PropOp55
 70
     1
102
RTVSPost2010Prop56
140
1.0
102
RTVSPost2010PropOp56
 70
     1
102
RTVSPost2010Prop57
140
1.0
102
RTVSPost2010PropOp57
 70
     1
102
RTVSPropertyOp0
 70
     1
102
RTVSPropertyOp1
 70
     1
102
RTVSPropertyOp2
 70
     1
102
RTVSPropertyOp3
 70
     1
102
RTVSPropertyOp4
 70
     1
102
RTVSPropertyOp5
 70
     1
102
RTVSPropertyOp6
 70
     1
102
RTVSPropertyOp7
 70
     1
102
RTVSPropertyOp8
 70
     1
102
RTVSPropertyOp9
 70
     1
102
RTVSPropertyOp10
 70
     1
102
RTVSPropertyOp11
 70
     1
102
RTVSPropertyOp12
 70
     1
102
RTVSPropertyOp13
 70
     1
102
RTVSPropertyOp14
 70
     1
102
RTVSPropertyOp15
 70
     1
102
RTVSPropertyOp16
 70
     1
102
RTVSPropertyOp17
 70
     1
102
RTVSPropertyOp18
 70
     1
102
RTVSPropertyOp19
 70
     1
102
RTVSPropertyOp20
 70
     1
102
RTVSPropertyOp21
 70
     1
102
RTVSPropertyOp22
 70
     1
102
RTVSPropertyOp23
 70
     1
102
RTVSPropertyOp24
 70
     1
102
RTVSPropertyOp25
 70
     1
102
RTVSPropertyOp26
 70
     1
102
RTVSPropertyOp27
 70
     1
102
RTVSPropertyOp28
 70
     1
102
RTVSPropertyOp29
 70
     1
102
RTVSPropertyOp30
 70
     1
102
RTVSPropertyOp31
 70
     1
102
RTVSPropertyOp32
 70
     1
102
RTVSPropertyOp33
 70
     1
102
RTVSPropertyOp34
 70
     1
102
RTVSPropertyOp35
 70
     1
102
RTVSPropertyOp36
 70
     1
102
RTVSPropertyOp37
 70
     1
102
RTVSPropertyOp38
 70
     1
102
RTVSPropertyOp39
 70
     1
102
RTVSPropertyOp40
 70
     1
102
RTVSPropertyOp41
 70
     1
102
RTVSPropertyOp42
 70
     1
102
RTVSPropertyOp43
 70
     1
102
RTVSPropertyOp44
 70
     1
102
RTVSPropertyOp45
 70
     1
102
RTVSPropertyOp46
 70
     1
102
RTVSPropertyOp47
 70
     1
102
RTVSPropertyOp48
 70
     1
102
RTVSPropertyOp49
 70
     1
102
RTVSPropertyOp50
 70
     1
102
RTVSPropertyOp51
 70
     0
102
RTVSPropertyOp52
 70
     0
102
RTVSPropertyOp53
 70
     1
102
RTVSPropertyOp54
 70
     1
102
RTVSPropertyOp55
 70
     1
102
RTVSPropertyOp56
 70
     1
102
RTVSPropertyOp57
 70
     1
102
RTVSPropertyOp58
 70
     1
102
RTVSPropertyOp59
 70
     1
102
RTVSPropertyOp60
 70
     1
102
RTVSPropertyOp61
 70
     1
102
RTVSPropertyOp62
 70
     1
  0
XRECORD
  5
50A
102
{ACAD_REACTORS
330
509
102
}
330
509
100
AcDbXrecord
280
     1
102
RTVSPost2010Prop28
280
     0
102
RTVSPost2010PropOp28
 70
     1
102
RTVSPost2010Prop29
280
     1
102
RTVSPost2010PropOp29
 70
     1
102
RTVSPost2010Prop30
280
     1
102
RTVSPost2010PropOp30
 70
     1
102
RTVSPost2010Prop31
280
     0
102
RTVSPost2010PropOp31
 70
     1
102
RTVSPost2010Prop32
280
     0
102
RTVSPost2010PropOp32
 70
     1
102
RTVSPost2010Prop33
280
     0
102
RTVSPost2010PropOp33
 70
     1
102
RTVSPost2010Prop34
280
     0
102
RTVSPost2010PropOp34
 70
     1
102
RTVSPost2010Prop35
280
     0
102
RTVSPost2010PropOp35
 70
     1
102
RTVSPost2010Prop36
280
     0
102
RTVSPost2010PropOp36
 70
     1
102
RTVSPost2010Prop37
 90
       50
102
RTVSPost2010PropOp37
 70
     1
102
RTVSPost2010Prop38
140
0.0
102
RTVSPost2010PropOp38
 70
     1
102
RTVSPost2010Prop39
140
1.0
102
RTVSPost2010PropOp39
 70
     1
102
RTVSPost2010Prop40
 90
        0
102
RTVSPost2010PropOp40
 70
     1
102
RTVSPost2010Prop41ColorIndex
 90
       18
102
RTVSPost2010Prop41ColorRGB
 90
        0
102
RTVSPost2010PropOp41
 70
     1
102
RTVSPost2010Prop42
 90
       50
102
RTVSPost2010PropOp42
 70
     1
102
RTVSPost2010Prop43
 90
        3
102
RTVSPost2010PropOp43
 70
     1
102
RTVSPost2010Prop44ColorIndex
 90
        5
102
RTVSPost2010Prop44ColorRGB
 90
      255
102
RTVSPost2010PropOp44
 70
     1
102
RTVSPost2010Prop45
280
     0
102
RTVSPost2010PropOp45
 70
     1
102
RTVSPost2010Prop46
 90
       50
102
RTVSPost2010PropOp46
 70
     1
102
RTVSPost2010Prop47
 90
       50
102
RTVSPost2010PropOp47
 70
     1
102
RTVSPost2010Prop48
 90
       50
102
RTVSPost2010PropOp48
 70
     1
102
RTVSPost2010Prop49
280
     0
102
RTVSPost2010PropOp49
 70
     1
102
RTVSPost2010Prop50
 90
       50
102
RTVSPost2010PropOp50
 70
     1
102
RTVSPost2010Prop51ColorIndex
 90
      256
102
RTVSPost2010Prop51ColorRGB
 90
-16777216
102
RTVSPost2010PropOp51
 70
     0
102
RTVSPost2010Prop52
140
1.0
102
RTVSPost2010PropOp52
 70
     0
102
RTVSPost2010Prop53
 90
        2
102
RTVSPost2010PropOp53
 70
     1
102
RTVSPost2010Prop54
  1
strokes_ogs.tif
102
RTVSPost2010PropOp54
 70
     1
102
RTVSPost2010Prop55
280
     0
102
RTVSPost2010PropOp55
 70
     1
102
RTVSPost2010Prop56
140
1.0
102
RTVSPost2010PropOp56
 70
     1
102
RTVSPost2010Prop57
140
1.0
102
RTVSPost2010PropOp57
 70
     1
102
RTVSPropertyOp0
 70
     0
102
RTVSPropertyOp1
 70
     0
102
RTVSPropertyOp2
 70
     0
102
RTVSPropertyOp3
 70
     0
102
RTVSPropertyOp4
 70
     0
102
RTVSPropertyOp5
 70
     0
102
RTVSPropertyOp6
 70
     0
102
RTVSPropertyOp7
 70
     0
102
RTVSPropertyOp8
 70
     0
102
RTVSPropertyOp9
 70
     0
102
RTVSPropertyOp10
 70
     0
102
RTVSPropertyOp11
 70
     0
102
RTVSPropertyOp12
 70
     0
102
RTVSPropertyOp13
 70
     0
102
RTVSPropertyOp14
 70
     2
102
RTVSPropertyOp15
 70
     0
102
RTVSPropertyOp16
 70
     0
102
RTVSPropertyOp17
 70
     0
102
RTVSPropertyOp18
 70
     0
102
RTVSPropertyOp19
 70
     0
102
RTVSPropertyOp20
 70
     0
102
RTVSPropertyOp21
 70
     0
102
RTVSPropertyOp22
 70
     0
102
RTVSPropertyOp23
 70
     0
102
RTVSPropertyOp24
 70
     0
102
RTVSPropertyOp25
 70
     0
102
RTVSPropertyOp26
 70
     0
102
RTVSPropertyOp27
 70
     0
102
RTVSPropertyOp28
 70
     1
102
RTVSPropertyOp29
 70
     1
102
RTVSPropertyOp30
 70
     1
102
RTVSPropertyOp31
 70
     1
102
RTVSPropertyOp32
 70
     1
102
RTVSPropertyOp33
 70
     1
102
RTVSPropertyOp34
 70
     1
102
RTVSPropertyOp35
 70
     1
102
RTVSPropertyOp36
 70
     1
102
RTVSPropertyOp37
 70
     1
102
RTVSPropertyOp38
 70
     1
102
RTVSPropertyOp39
 70
     1
102
RTVSPropertyOp40
 70
     1
102
RTVSPropertyOp41
 70
     1
102
RTVSPropertyOp42
 70
     1
102
RTVSPropertyOp43
 70
     1
102
RTVSPropertyOp44
 70
     1
102
RTVSPropertyOp45
 70
     1
102
RTVSPropertyOp46
 70
     1
102
RTVSPropertyOp47
 70
     1
102
RTVSPropertyOp48
 70
     1
102
RTVSPropertyOp49
 70
     1
102
RTVSPropertyOp50
 70
     1
102
RTVSPropertyOp51
 70
     0
102
RTVSPropertyOp52
 70
     0
102
RTVSPropertyOp53
 70
     1
102
RTVSPropertyOp54
 70
     1
102
RTVSPropertyOp55
 70
     1
102
RTVSPropertyOp56
 70
     1
102
RTVSPropertyOp57
 70
     1
102
RTVSPropertyOp58
 70
     1
102
RTVSPropertyOp59
 70
     1
102
RTVSPropertyOp60
 70
     1
102
RTVSPropertyOp61
 70
     1
102
RTVSPropertyOp62
 70
     1
  0
XRECORD
  5
504
102
{ACAD_REACTORS
330
503
102
}
330
503
100
AcDbXrecord
280
     1
102
RTVSPost2010Prop28
280
     0
102
RTVSPost2010PropOp28
 70
     1
102
RTVSPost2010Prop29
280
     1
102
RTVSPost2010PropOp29
 70
     1
102
RTVSPost2010Prop30
280
     1
102
RTVSPost2010PropOp30
 70
     1
102
RTVSPost2010Prop31
280
     0
102
RTVSPost2010PropOp31
 70
     1
102
RTVSPost2010Prop32
280
     0
102
RTVSPost2010PropOp32
 70
     1
102
RTVSPost2010Prop33
280
     0
102
RTVSPost2010PropOp33
 70
     1
102
RTVSPost2010Prop34
280
     0
102
RTVSPost2010PropOp34
 70
     1
102
RTVSPost2010Prop35
280
     0
102
RTVSPost2010PropOp35
 70
     1
102
RTVSPost2010Prop36
280
     0
102
RTVSPost2010PropOp36
 70
     1
102
RTVSPost2010Prop37
 90
       50
102
RTVSPost2010PropOp37
 70
     1
102
RTVSPost2010Prop38
140
0.0
102
RTVSPost2010PropOp38
 70
     1
102
RTVSPost2010Prop39
140
1.0
102
RTVSPost2010PropOp39
 70
     1
102
RTVSPost2010Prop40
 90
        0
102
RTVSPost2010PropOp40
 70
     1
102
RTVSPost2010Prop41ColorIndex
 90
       18
102
RTVSPost2010Prop41ColorRGB
 90
        0
102
RTVSPost2010PropOp41
 70
     1
102
RTVSPost2010Prop42
 90
       50
102
RTVSPost2010PropOp42
 70
     1
102
RTVSPost2010Prop43
 90
        3
102
RTVSPost2010PropOp43
 70
     1
102
RTVSPost2010Prop44ColorIndex
 90
        5
102
RTVSPost2010Prop44ColorRGB
 90
      255
102
RTVSPost2010PropOp44
 70
     1
102
RTVSPost2010Prop45
280
     0
102
RTVSPost2010PropOp45
 70
     1
102
RTVSPost2010Prop46
 90
       50
102
RTVSPost2010PropOp46
 70
     1
102
RTVSPost2010Prop47
 90
       50
102
RTVSPost2010PropOp47
 70
     1
102
RTVSPost2010Prop48
 90
       50
102
RTVSPost2010PropOp48
 70
     1
102
RTVSPost2010Prop49
280
     0
102
RTVSPost2010PropOp49
 70
     1
102
RTVSPost2010Prop50
 90
       50
102
RTVSPost2010PropOp50
 70
     1
102
RTVSPost2010Prop51ColorIndex
 90
      256
102
RTVSPost2010Prop51ColorRGB
 90
-16777216
102
RTVSPost2010PropOp51
 70
     0
102
RTVSPost2010Prop52
140
1.0
102
RTVSPost2010PropOp52
 70
     0
102
RTVSPost2010Prop53
 90
        2
102
RTVSPost2010PropOp53
 70
     1
102
RTVSPost2010Prop54
  1
strokes_ogs.tif
102
RTVSPost2010PropOp54
 70
     1
102
RTVSPost2010Prop55
280
     0
102
RTVSPost2010PropOp55
 70
     1
102
RTVSPost2010Prop56
140
1.0
102
RTVSPost2010PropOp56
 70
     1
102
RTVSPost2010Prop57
140
1.0
102
RTVSPost2010PropOp57
 70
     1
102
RTVSPropertyOp0
 70
     1
102
RTVSPropertyOp1
 70
     1
102
RTVSPropertyOp2
 70
     1
102
RTVSPropertyOp3
 70
     1
102
RTVSPropertyOp4
 70
     1
102
RTVSPropertyOp5
 70
     1
102
RTVSPropertyOp6
 70
     1
102
RTVSPropertyOp7
 70
     1
102
RTVSPropertyOp8
 70
     1
102
RTVSPropertyOp9
 70
     1
102
RTVSPropertyOp10
 70
     1
102
RTVSPropertyOp11
 70
     1
102
RTVSPropertyOp12
 70
     1
102
RTVSPropertyOp13
 70
     1
102
RTVSPropertyOp14
 70
     1
102
RTVSPropertyOp15
 70
     1
102
RTVSPropertyOp16
 70
     1
102
RTVSPropertyOp17
 70
     1
102
RTVSPropertyOp18
 70
     1
102
RTVSPropertyOp19
 70
     1
102
RTVSPropertyOp20
 70
     1
102
RTVSPropertyOp21
 70
     1
102
RTVSPropertyOp22
 70
     1
102
RTVSPropertyOp23
 70
     1
102
RTVSPropertyOp24
 70
     1
102
RTVSPropertyOp25
 70
     1
102
RTVSPropertyOp26
 70
     1
102
RTVSPropertyOp27
 70
     1
102
RTVSPropertyOp28
 70
     1
102
RTVSPropertyOp29
 70
     1
102
RTVSPropertyOp30
 70
     1
102
RTVSPropertyOp31
 70
     1
102
RTVSPropertyOp32
 70
     1
102
RTVSPropertyOp33
 70
     1
102
RTVSPropertyOp34
 70
     1
102
RTVSPropertyOp35
 70
     1
102
RTVSPropertyOp36
 70
     1
102
RTVSPropertyOp37
 70
     1
102
RTVSPropertyOp38
 70
     1
102
RTVSPropertyOp39
 70
     1
102
RTVSPropertyOp40
 70
     1
102
RTVSPropertyOp41
 70
     1
102
RTVSPropertyOp42
 70
     1
102
RTVSPropertyOp43
 70
     1
102
RTVSPropertyOp44
 70
     1
102
RTVSPropertyOp45
 70
     1
102
RTVSPropertyOp46
 70
     1
102
RTVSPropertyOp47
 70
     1
102
RTVSPropertyOp48
 70
     1
102
RTVSPropertyOp49
 70
     1
102
RTVSPropertyOp50
 70
     1
102
RTVSPropertyOp51
 70
     0
102
RTVSPropertyOp52
 70
     0
102
RTVSPropertyOp53
 70
     1
102
RTVSPropertyOp54
 70
     1
102
RTVSPropertyOp55
 70
     1
102
RTVSPropertyOp56
 70
     1
102
RTVSPropertyOp57
 70
     1
102
RTVSPropertyOp58
 70
     1
102
RTVSPropertyOp59
 70
     1
102
RTVSPropertyOp60
 70
     1
102
RTVSPropertyOp61
 70
     1
102
RTVSPropertyOp62
 70
     1
  0
XRECORD
  5
50C
102
{ACAD_REACTORS
330
50B
102
}
330
50B
100
AcDbXrecord
280
     1
102
RTVSPost2010Prop28
280
     0
102
RTVSPost2010PropOp28
 70
     1
102
RTVSPost2010Prop29
280
     1
102
RTVSPost2010PropOp29
 70
     1
102
RTVSPost2010Prop30
280
     1
102
RTVSPost2010PropOp30
 70
     1
102
RTVSPost2010Prop31
280
     0
102
RTVSPost2010PropOp31
 70
     1
102
RTVSPost2010Prop32
280
     0
102
RTVSPost2010PropOp32
 70
     1
102
RTVSPost2010Prop33
280
     0
102
RTVSPost2010PropOp33
 70
     1
102
RTVSPost2010Prop34
280
     0
102
RTVSPost2010PropOp34
 70
     1
102
RTVSPost2010Prop35
280
     0
102
RTVSPost2010PropOp35
 70
     1
102
RTVSPost2010Prop36
280
     0
102
RTVSPost2010PropOp36
 70
     1
102
RTVSPost2010Prop37
 90
       50
102
RTVSPost2010PropOp37
 70
     1
102
RTVSPost2010Prop38
140
0.0
102
RTVSPost2010PropOp38
 70
     1
102
RTVSPost2010Prop39
140
1.0
102
RTVSPost2010PropOp39
 70
     1
102
RTVSPost2010Prop40
 90
        0
102
RTVSPost2010PropOp40
 70
     1
102
RTVSPost2010Prop41ColorIndex
 90
       18
102
RTVSPost2010Prop41ColorRGB
 90
        0
102
RTVSPost2010PropOp41
 70
     1
102
RTVSPost2010Prop42
 90
       50
102
RTVSPost2010PropOp42
 70
     1
102
RTVSPost2010Prop43
 90
        3
102
RTVSPost2010PropOp43
 70
     1
102
RTVSPost2010Prop44ColorIndex
 90
        5
102
RTVSPost2010Prop44ColorRGB
 90
      255
102
RTVSPost2010PropOp44
 70
     1
102
RTVSPost2010Prop45
280
     0
102
RTVSPost2010PropOp45
 70
     1
102
RTVSPost2010Prop46
 90
       50
102
RTVSPost2010PropOp46
 70
     1
102
RTVSPost2010Prop47
 90
       50
102
RTVSPost2010PropOp47
 70
     1
102
RTVSPost2010Prop48
 90
       50
102
RTVSPost2010PropOp48
 70
     1
102
RTVSPost2010Prop49
280
     0
102
RTVSPost2010PropOp49
 70
     1
102
RTVSPost2010Prop50
 90
       50
102
RTVSPost2010PropOp50
 70
     1
102
RTVSPost2010Prop51ColorIndex
 90
      256
102
RTVSPost2010Prop51ColorRGB
 90
-16777216
102
RTVSPost2010PropOp51
 70
     0
102
RTVSPost2010Prop52
140
1.0
102
RTVSPost2010PropOp52
 70
     0
102
RTVSPost2010Prop53
 90
        2
102
RTVSPost2010PropOp53
 70
     1
102
RTVSPost2010Prop54
  1
strokes_ogs.tif
102
RTVSPost2010PropOp54
 70
     1
102
RTVSPost2010Prop55
280
     0
102
RTVSPost2010PropOp55
 70
     1
102
RTVSPost2010Prop56
140
1.0
102
RTVSPost2010PropOp56
 70
     1
102
RTVSPost2010Prop57
140
1.0
102
RTVSPost2010PropOp57
 70
     1
102
RTVSPropertyOp0
 70
     0
102
RTVSPropertyOp1
 70
     0
102
RTVSPropertyOp2
 70
     0
102
RTVSPropertyOp3
 70
     0
102
RTVSPropertyOp4
 70
     0
102
RTVSPropertyOp5
 70
     0
102
RTVSPropertyOp6
 70
     0
102
RTVSPropertyOp7
 70
     0
102
RTVSPropertyOp8
 70
     0
102
RTVSPropertyOp9
 70
     0
102
RTVSPropertyOp10
 70
     0
102
RTVSPropertyOp11
 70
     0
102
RTVSPropertyOp12
 70
     0
102
RTVSPropertyOp13
 70
     0
102
RTVSPropertyOp14
 70
     2
102
RTVSPropertyOp15
 70
     0
102
RTVSPropertyOp16
 70
     0
102
RTVSPropertyOp17
 70
     0
102
RTVSPropertyOp18
 70
     0
102
RTVSPropertyOp19
 70
     0
102
RTVSPropertyOp20
 70
     0
102
RTVSPropertyOp21
 70
     0
102
RTVSPropertyOp22
 70
     0
102
RTVSPropertyOp23
 70
     0
102
RTVSPropertyOp24
 70
     0
102
RTVSPropertyOp25
 70
     0
102
RTVSPropertyOp26
 70
     0
102
RTVSPropertyOp27
 70
     0
102
RTVSPropertyOp28
 70
     1
102
RTVSPropertyOp29
 70
     1
102
RTVSPropertyOp30
 70
     1
102
RTVSPropertyOp31
 70
     1
102
RTVSPropertyOp32
 70
     1
102
RTVSPropertyOp33
 70
     1
102
RTVSPropertyOp34
 70
     1
102
RTVSPropertyOp35
 70
     1
102
RTVSPropertyOp36
 70
     1
102
RTVSPropertyOp37
 70
     1
102
RTVSPropertyOp38
 70
     1
102
RTVSPropertyOp39
 70
     1
102
RTVSPropertyOp40
 70
     1
102
RTVSPropertyOp41
 70
     1
102
RTVSPropertyOp42
 70
     1
102
RTVSPropertyOp43
 70
     1
102
RTVSPropertyOp44
 70
     1
102
RTVSPropertyOp45
 70
     1
102
RTVSPropertyOp46
 70
     1
102
RTVSPropertyOp47
 70
     1
102
RTVSPropertyOp48
 70
     1
102
RTVSPropertyOp49
 70
     1
102
RTVSPropertyOp50
 70
     1
102
RTVSPropertyOp51
 70
     0
102
RTVSPropertyOp52
 70
     0
102
RTVSPropertyOp53
 70
     1
102
RTVSPropertyOp54
 70
     1
102
RTVSPropertyOp55
 70
     1
102
RTVSPropertyOp56
 70
     1
102
RTVSPropertyOp57
 70
     1
102
RTVSPropertyOp58
 70
     1
102
RTVSPropertyOp59
 70
     1
102
RTVSPropertyOp60
 70
     1
102
RTVSPropertyOp61
 70
     1
102
RTVSPropertyOp62
 70
     1
  0
XRECORD
  5
4FC
102
{ACAD_REACTORS
330
4FB
102
}
330
4FB
100
AcDbXrecord
280
     1
102
RTVSPost2010Prop28
280
     0
102
RTVSPost2010PropOp28
 70
     1
102
RTVSPost2010Prop29
280
     1
102
RTVSPost2010PropOp29
 70
     1
102
RTVSPost2010Prop30
280
     1
102
RTVSPost2010PropOp30
 70
     1
102
RTVSPost2010Prop31
280
     0
102
RTVSPost2010PropOp31
 70
     1
102
RTVSPost2010Prop32
280
     0
102
RTVSPost2010PropOp32
 70
     1
102
RTVSPost2010Prop33
280
     0
102
RTVSPost2010PropOp33
 70
     1
102
RTVSPost2010Prop34
280
     0
102
RTVSPost2010PropOp34
 70
     1
102
RTVSPost2010Prop35
280
     0
102
RTVSPost2010PropOp35
 70
     1
102
RTVSPost2010Prop36
280
     0
102
RTVSPost2010PropOp36
 70
     1
102
RTVSPost2010Prop37
 90
       50
102
RTVSPost2010PropOp37
 70
     1
102
RTVSPost2010Prop38
140
0.0
102
RTVSPost2010PropOp38
 70
     1
102
RTVSPost2010Prop39
140
1.0
102
RTVSPost2010PropOp39
 70
     1
102
RTVSPost2010Prop40
 90
        0
102
RTVSPost2010PropOp40
 70
     1
102
RTVSPost2010Prop41ColorIndex
 90
       18
102
RTVSPost2010Prop41ColorRGB
 90
        0
102
RTVSPost2010PropOp41
 70
     1
102
RTVSPost2010Prop42
 90
       50
102
RTVSPost2010PropOp42
 70
     1
102
RTVSPost2010Prop43
 90
        3
102
RTVSPost2010PropOp43
 70
     1
102
RTVSPost2010Prop44ColorIndex
 90
        5
102
RTVSPost2010Prop44ColorRGB
 90
      255
102
RTVSPost2010PropOp44
 70
     1
102
RTVSPost2010Prop45
280
     0
102
RTVSPost2010PropOp45
 70
     1
102
RTVSPost2010Prop46
 90
       50
102
RTVSPost2010PropOp46
 70
     1
102
RTVSPost2010Prop47
 90
       50
102
RTVSPost2010PropOp47
 70
     1
102
RTVSPost2010Prop48
 90
       50
102
RTVSPost2010PropOp48
 70
     1
102
RTVSPost2010Prop49
280
     0
102
RTVSPost2010PropOp49
 70
     1
102
RTVSPost2010Prop50
 90
       50
102
RTVSPost2010PropOp50
 70
     1
102
RTVSPost2010Prop51ColorIndex
 90
      256
102
RTVSPost2010Prop51ColorRGB
 90
-16777216
102
RTVSPost2010PropOp51
 70
     0
102
RTVSPost2010Prop52
140
1.0
102
RTVSPost2010PropOp52
 70
     0
102
RTVSPost2010Prop53
 90
        2
102
RTVSPost2010PropOp53
 70
     1
102
RTVSPost2010Prop54
  1
strokes_ogs.tif
102
RTVSPost2010PropOp54
 70
     1
102
RTVSPost2010Prop55
280
     0
102
RTVSPost2010PropOp55
 70
     1
102
RTVSPost2010Prop56
140
1.0
102
RTVSPost2010PropOp56
 70
     1
102
RTVSPost2010Prop57
140
1.0
102
RTVSPost2010PropOp57
 70
     1
102
RTVSPropertyOp0
 70
     1
102
RTVSPropertyOp1
 70
     1
102
RTVSPropertyOp2
 70
     1
102
RTVSPropertyOp3
 70
     1
102
RTVSPropertyOp4
 70
     1
102
RTVSPropertyOp5
 70
     1
102
RTVSPropertyOp6
 70
     1
102
RTVSPropertyOp7
 70
     1
102
RTVSPropertyOp8
 70
     1
102
RTVSPropertyOp9
 70
     1
102
RTVSPropertyOp10
 70
     1
102
RTVSPropertyOp11
 70
     1
102
RTVSPropertyOp12
 70
     1
102
RTVSPropertyOp13
 70
     1
102
RTVSPropertyOp14
 70
     1
102
RTVSPropertyOp15
 70
     1
102
RTVSPropertyOp16
 70
     1
102
RTVSPropertyOp17
 70
     1
102
RTVSPropertyOp18
 70
     1
102
RTVSPropertyOp19
 70
     1
102
RTVSPropertyOp20
 70
     1
102
RTVSPropertyOp21
 70
     1
102
RTVSPropertyOp22
 70
     1
102
RTVSPropertyOp23
 70
     1
102
RTVSPropertyOp24
 70
     1
102
RTVSPropertyOp25
 70
     1
102
RTVSPropertyOp26
 70
     1
102
RTVSPropertyOp27
 70
     1
102
RTVSPropertyOp28
 70
     1
102
RTVSPropertyOp29
 70
     1
102
RTVSPropertyOp30
 70
     1
102
RTVSPropertyOp31
 70
     1
102
RTVSPropertyOp32
 70
     1
102
RTVSPropertyOp33
 70
     1
102
RTVSPropertyOp34
 70
     1
102
RTVSPropertyOp35
 70
     1
102
RTVSPropertyOp36
 70
     1
102
RTVSPropertyOp37
 70
     1
102
RTVSPropertyOp38
 70
     1
102
RTVSPropertyOp39
 70
     1
102
RTVSPropertyOp40
 70
     1
102
RTVSPropertyOp41
 70
     1
102
RTVSPropertyOp42
 70
     1
102
RTVSPropertyOp43
 70
     1
102
RTVSPropertyOp44
 70
     1
102
RTVSPropertyOp45
 70
     1
102
RTVSPropertyOp46
 70
     1
102
RTVSPropertyOp47
 70
     1
102
RTVSPropertyOp48
 70
     1
102
RTVSPropertyOp49
 70
     1
102
RTVSPropertyOp50
 70
     1
102
RTVSPropertyOp51
 70
     0
102
RTVSPropertyOp52
 70
     0
102
RTVSPropertyOp53
 70
     1
102
RTVSPropertyOp54
 70
     1
102
RTVSPropertyOp55
 70
     1
102
RTVSPropertyOp56
 70
     1
102
RTVSPropertyOp57
 70
     1
102
RTVSPropertyOp58
 70
     1
102
RTVSPropertyOp59
 70
     1
102
RTVSPropertyOp60
 70
     1
102
RTVSPropertyOp61
 70
     1
102
RTVSPropertyOp62
 70
     1
  0
XRECORD
  5
518
102
{ACAD_REACTORS
330
517
102
}
330
517
100
AcDbXrecord
280
     1
102
RTVSPost2010Prop28
280
     0
102
RTVSPost2010PropOp28
 70
     1
102
RTVSPost2010Prop29
280
     1
102
RTVSPost2010PropOp29
 70
     1
102
RTVSPost2010Prop30
280
     1
102
RTVSPost2010PropOp30
 70
     1
102
RTVSPost2010Prop31
280
     0
102
RTVSPost2010PropOp31
 70
     1
102
RTVSPost2010Prop32
280
     0
102
RTVSPost2010PropOp32
 70
     1
102
RTVSPost2010Prop33
280
     0
102
RTVSPost2010PropOp33
 70
     1
102
RTVSPost2010Prop34
280
     0
102
RTVSPost2010PropOp34
 70
     1
102
RTVSPost2010Prop35
280
     0
102
RTVSPost2010PropOp35
 70
     1
102
RTVSPost2010Prop36
280
     0
102
RTVSPost2010PropOp36
 70
     1
102
RTVSPost2010Prop37
 90
       50
102
RTVSPost2010PropOp37
 70
     1
102
RTVSPost2010Prop38
140
0.0
102
RTVSPost2010PropOp38
 70
     1
102
RTVSPost2010Prop39
140
1.0
102
RTVSPost2010PropOp39
 70
     1
102
RTVSPost2010Prop40
 90
        0
102
RTVSPost2010PropOp40
 70
     1
102
RTVSPost2010Prop41ColorIndex
 90
       18
102
RTVSPost2010Prop41ColorRGB
 90
        0
102
RTVSPost2010PropOp41
 70
     1
102
RTVSPost2010Prop42
 90
       50
102
RTVSPost2010PropOp42
 70
     1
102
RTVSPost2010Prop43
 90
        3
102
RTVSPost2010PropOp43
 70
     1
102
RTVSPost2010Prop44ColorIndex
 90
        5
102
RTVSPost2010Prop44ColorRGB
 90
      255
102
RTVSPost2010PropOp44
 70
     1
102
RTVSPost2010Prop45
280
     0
102
RTVSPost2010PropOp45
 70
     1
102
RTVSPost2010Prop46
 90
       50
102
RTVSPost2010PropOp46
 70
     1
102
RTVSPost2010Prop47
 90
       50
102
RTVSPost2010PropOp47
 70
     1
102
RTVSPost2010Prop48
 90
       50
102
RTVSPost2010PropOp48
 70
     1
102
RTVSPost2010Prop49
280
     0
102
RTVSPost2010PropOp49
 70
     1
102
RTVSPost2010Prop50
 90
       50
102
RTVSPost2010PropOp50
 70
     1
102
RTVSPost2010Prop51ColorIndex
 90
      256
102
RTVSPost2010Prop51ColorRGB
 90
-16777216
102
RTVSPost2010PropOp51
 70
     0
102
RTVSPost2010Prop52
140
1.0
102
RTVSPost2010PropOp52
 70
     0
102
RTVSPost2010Prop53
 90
        2
102
RTVSPost2010PropOp53
 70
     1
102
RTVSPost2010Prop54
  1
strokes_ogs.tif
102
RTVSPost2010PropOp54
 70
     1
102
RTVSPost2010Prop55
280
     0
102
RTVSPost2010PropOp55
 70
     1
102
RTVSPost2010Prop56
140
1.0
102
RTVSPost2010PropOp56
 70
     1
102
RTVSPost2010Prop57
140
1.0
102
RTVSPost2010PropOp57
 70
     1
102
RTVSPropertyOp0
 70
     1
102
RTVSPropertyOp1
 70
     1
102
RTVSPropertyOp2
 70
     1
102
RTVSPropertyOp3
 70
     1
102
RTVSPropertyOp4
 70
     1
102
RTVSPropertyOp5
 70
     1
102
RTVSPropertyOp6
 70
     1
102
RTVSPropertyOp7
 70
     1
102
RTVSPropertyOp8
 70
     1
102
RTVSPropertyOp9
 70
     1
102
RTVSPropertyOp10
 70
     1
102
RTVSPropertyOp11
 70
     1
102
RTVSPropertyOp12
 70
     1
102
RTVSPropertyOp13
 70
     1
102
RTVSPropertyOp14
 70
     1
102
RTVSPropertyOp15
 70
     1
102
RTVSPropertyOp16
 70
     1
102
RTVSPropertyOp17
 70
     1
102
RTVSPropertyOp18
 70
     1
102
RTVSPropertyOp19
 70
     1
102
RTVSPropertyOp20
 70
     1
102
RTVSPropertyOp21
 70
     1
102
RTVSPropertyOp22
 70
     1
102
RTVSPropertyOp23
 70
     1
102
RTVSPropertyOp24
 70
     1
102
RTVSPropertyOp25
 70
     1
102
RTVSPropertyOp26
 70
     1
102
RTVSPropertyOp27
 70
     1
102
RTVSPropertyOp28
 70
     1
102
RTVSPropertyOp29
 70
     1
102
RTVSPropertyOp30
 70
     1
102
RTVSPropertyOp31
 70
     1
102
RTVSPropertyOp32
 70
     1
102
RTVSPropertyOp33
 70
     1
102
RTVSPropertyOp34
 70
     1
102
RTVSPropertyOp35
 70
     1
102
RTVSPropertyOp36
 70
     1
102
RTVSPropertyOp37
 70
     1
102
RTVSPropertyOp38
 70
     1
102
RTVSPropertyOp39
 70
     1
102
RTVSPropertyOp40
 70
     1
102
RTVSPropertyOp41
 70
     1
102
RTVSPropertyOp42
 70
     1
102
RTVSPropertyOp43
 70
     1
102
RTVSPropertyOp44
 70
     1
102
RTVSPropertyOp45
 70
     1
102
RTVSPropertyOp46
 70
     1
102
RTVSPropertyOp47
 70
     1
102
RTVSPropertyOp48
 70
     1
102
RTVSPropertyOp49
 70
     1
102
RTVSPropertyOp50
 70
     1
102
RTVSPropertyOp51
 70
     0
102
RTVSPropertyOp52
 70
     0
102
RTVSPropertyOp53
 70
     1
102
RTVSPropertyOp54
 70
     1
102
RTVSPropertyOp55
 70
     1
102
RTVSPropertyOp56
 70
     1
102
RTVSPropertyOp57
 70
     1
102
RTVSPropertyOp58
 70
     1
102
RTVSPropertyOp59
 70
     1
102
RTVSPropertyOp60
 70
     1
102
RTVSPropertyOp61
 70
     1
102
RTVSPropertyOp62
 70
     1
  0
XRECORD
  5
516
102
{ACAD_REACTORS
330
515
102
}
330
515
100
AcDbXrecord
280
     1
102
RTVSPost2010Prop28
280
     0
102
RTVSPost2010PropOp28
 70
     1
102
RTVSPost2010Prop29
280
     1
102
RTVSPost2010PropOp29
 70
     1
102
RTVSPost2010Prop30
280
     1
102
RTVSPost2010PropOp30
 70
     1
102
RTVSPost2010Prop31
280
     0
102
RTVSPost2010PropOp31
 70
     1
102
RTVSPost2010Prop32
280
     0
102
RTVSPost2010PropOp32
 70
     1
102
RTVSPost2010Prop33
280
     0
102
RTVSPost2010PropOp33
 70
     1
102
RTVSPost2010Prop34
280
     0
102
RTVSPost2010PropOp34
 70
     1
102
RTVSPost2010Prop35
280
     0
102
RTVSPost2010PropOp35
 70
     1
102
RTVSPost2010Prop36
280
     0
102
RTVSPost2010PropOp36
 70
     1
102
RTVSPost2010Prop37
 90
       50
102
RTVSPost2010PropOp37
 70
     1
102
RTVSPost2010Prop38
140
0.0
102
RTVSPost2010PropOp38
 70
     1
102
RTVSPost2010Prop39
140
1.0
102
RTVSPost2010PropOp39
 70
     1
102
RTVSPost2010Prop40
 90
        0
102
RTVSPost2010PropOp40
 70
     1
102
RTVSPost2010Prop41ColorIndex
 90
       18
102
RTVSPost2010Prop41ColorRGB
 90
        0
102
RTVSPost2010PropOp41
 70
     1
102
RTVSPost2010Prop42
 90
       50
102
RTVSPost2010PropOp42
 70
     1
102
RTVSPost2010Prop43
 90
        3
102
RTVSPost2010PropOp43
 70
     1
102
RTVSPost2010Prop44ColorIndex
 90
        5
102
RTVSPost2010Prop44ColorRGB
 90
      255
102
RTVSPost2010PropOp44
 70
     1
102
RTVSPost2010Prop45
280
     0
102
RTVSPost2010PropOp45
 70
     1
102
RTVSPost2010Prop46
 90
       50
102
RTVSPost2010PropOp46
 70
     1
102
RTVSPost2010Prop47
 90
       50
102
RTVSPost2010PropOp47
 70
     1
102
RTVSPost2010Prop48
 90
       50
102
RTVSPost2010PropOp48
 70
     1
102
RTVSPost2010Prop49
280
     0
102
RTVSPost2010PropOp49
 70
     1
102
RTVSPost2010Prop50
 90
       50
102
RTVSPost2010PropOp50
 70
     1
102
RTVSPost2010Prop51ColorIndex
 90
      256
102
RTVSPost2010Prop51ColorRGB
 90
-16777216
102
RTVSPost2010PropOp51
 70
     0
102
RTVSPost2010Prop52
140
1.0
102
RTVSPost2010PropOp52
 70
     0
102
RTVSPost2010Prop53
 90
        2
102
RTVSPost2010PropOp53
 70
     1
102
RTVSPost2010Prop54
  1
strokes_ogs.tif
102
RTVSPost2010PropOp54
 70
     1
102
RTVSPost2010Prop55
280
     0
102
RTVSPost2010PropOp55
 70
     1
102
RTVSPost2010Prop56
140
1.0
102
RTVSPost2010PropOp56
 70
     1
102
RTVSPost2010Prop57
140
1.0
102
RTVSPost2010PropOp57
 70
     1
102
RTVSPropertyOp0
 70
     1
102
RTVSPropertyOp1
 70
     1
102
RTVSPropertyOp2
 70
     1
102
RTVSPropertyOp3
 70
     1
102
RTVSPropertyOp4
 70
     1
102
RTVSPropertyOp5
 70
     1
102
RTVSPropertyOp6
 70
     1
102
RTVSPropertyOp7
 70
     1
102
RTVSPropertyOp8
 70
     1
102
RTVSPropertyOp9
 70
     1
102
RTVSPropertyOp10
 70
     1
102
RTVSPropertyOp11
 70
     1
102
RTVSPropertyOp12
 70
     1
102
RTVSPropertyOp13
 70
     1
102
RTVSPropertyOp14
 70
     1
102
RTVSPropertyOp15
 70
     1
102
RTVSPropertyOp16
 70
     1
102
RTVSPropertyOp17
 70
     1
102
RTVSPropertyOp18
 70
     1
102
RTVSPropertyOp19
 70
     1
102
RTVSPropertyOp20
 70
     1
102
RTVSPropertyOp21
 70
     1
102
RTVSPropertyOp22
 70
     1
102
RTVSPropertyOp23
 70
     1
102
RTVSPropertyOp24
 70
     1
102
RTVSPropertyOp25
 70
     1
102
RTVSPropertyOp26
 70
     1
102
RTVSPropertyOp27
 70
     1
102
RTVSPropertyOp28
 70
     1
102
RTVSPropertyOp29
 70
     1
102
RTVSPropertyOp30
 70
     1
102
RTVSPropertyOp31
 70
     1
102
RTVSPropertyOp32
 70
     1
102
RTVSPropertyOp33
 70
     1
102
RTVSPropertyOp34
 70
     1
102
RTVSPropertyOp35
 70
     1
102
RTVSPropertyOp36
 70
     1
102
RTVSPropertyOp37
 70
     1
102
RTVSPropertyOp38
 70
     1
102
RTVSPropertyOp39
 70
     1
102
RTVSPropertyOp40
 70
     1
102
RTVSPropertyOp41
 70
     1
102
RTVSPropertyOp42
 70
     1
102
RTVSPropertyOp43
 70
     1
102
RTVSPropertyOp44
 70
     1
102
RTVSPropertyOp45
 70
     1
102
RTVSPropertyOp46
 70
     1
102
RTVSPropertyOp47
 70
     1
102
RTVSPropertyOp48
 70
     1
102
RTVSPropertyOp49
 70
     1
102
RTVSPropertyOp50
 70
     1
102
RTVSPropertyOp51
 70
     0
102
RTVSPropertyOp52
 70
     0
102
RTVSPropertyOp53
 70
     1
102
RTVSPropertyOp54
 70
     1
102
RTVSPropertyOp55
 70
     1
102
RTVSPropertyOp56
 70
     1
102
RTVSPropertyOp57
 70
     1
102
RTVSPropertyOp58
 70
     1
102
RTVSPropertyOp59
 70
     1
102
RTVSPropertyOp60
 70
     1
102
RTVSPropertyOp61
 70
     1
102
RTVSPropertyOp62
 70
     1
  0
XRECORD
  5
510
102
{ACAD_REACTORS
330
50F
102
}
330
50F
100
AcDbXrecord
280
     1
102
RTVSPost2010Prop28
280
     0
102
RTVSPost2010PropOp28
 70
     1
102
RTVSPost2010Prop29
280
     1
102
RTVSPost2010PropOp29
 70
     1
102
RTVSPost2010Prop30
280
     1
102
RTVSPost2010PropOp30
 70
     1
102
RTVSPost2010Prop31
280
     0
102
RTVSPost2010PropOp31
 70
     1
102
RTVSPost2010Prop32
280
     0
102
RTVSPost2010PropOp32
 70
     1
102
RTVSPost2010Prop33
280
     0
102
RTVSPost2010PropOp33
 70
     1
102
RTVSPost2010Prop34
280
     0
102
RTVSPost2010PropOp34
 70
     1
102
RTVSPost2010Prop35
280
     0
102
RTVSPost2010PropOp35
 70
     1
102
RTVSPost2010Prop36
280
     0
102
RTVSPost2010PropOp36
 70
     1
102
RTVSPost2010Prop37
 90
       50
102
RTVSPost2010PropOp37
 70
     1
102
RTVSPost2010Prop38
140
0.0
102
RTVSPost2010PropOp38
 70
     1
102
RTVSPost2010Prop39
140
1.0
102
RTVSPost2010PropOp39
 70
     1
102
RTVSPost2010Prop40
 90
        0
102
RTVSPost2010PropOp40
 70
     1
102
RTVSPost2010Prop41ColorIndex
 90
       18
102
RTVSPost2010Prop41ColorRGB
 90
        0
102
RTVSPost2010PropOp41
 70
     1
102
RTVSPost2010Prop42
 90
       50
102
RTVSPost2010PropOp42
 70
     1
102
RTVSPost2010Prop43
 90
        3
102
RTVSPost2010PropOp43
 70
     1
102
RTVSPost2010Prop44ColorIndex
 90
        5
102
RTVSPost2010Prop44ColorRGB
 90
      255
102
RTVSPost2010PropOp44
 70
     1
102
RTVSPost2010Prop45
280
     0
102
RTVSPost2010PropOp45
 70
     1
102
RTVSPost2010Prop46
 90
       50
102
RTVSPost2010PropOp46
 70
     1
102
RTVSPost2010Prop47
 90
       50
102
RTVSPost2010PropOp47
 70
     1
102
RTVSPost2010Prop48
 90
       50
102
RTVSPost2010PropOp48
 70
     1
102
RTVSPost2010Prop49
280
     0
102
RTVSPost2010PropOp49
 70
     1
102
RTVSPost2010Prop50
 90
       50
102
RTVSPost2010PropOp50
 70
     1
102
RTVSPost2010Prop51ColorIndex
 90
      256
102
RTVSPost2010Prop51ColorRGB
 90
-16777216
102
RTVSPost2010PropOp51
 70
     0
102
RTVSPost2010Prop52
140
1.0
102
RTVSPost2010PropOp52
 70
     0
102
RTVSPost2010Prop53
 90
        2
102
RTVSPost2010PropOp53
 70
     1
102
RTVSPost2010Prop54
  1
strokes_ogs.tif
102
RTVSPost2010PropOp54
 70
     1
102
RTVSPost2010Prop55
280
     0
102
RTVSPost2010PropOp55
 70
     1
102
RTVSPost2010Prop56
140
1.0
102
RTVSPost2010PropOp56
 70
     1
102
RTVSPost2010Prop57
140
1.0
102
RTVSPost2010PropOp57
 70
     1
102
RTVSPropertyOp0
 70
     1
102
RTVSPropertyOp1
 70
     1
102
RTVSPropertyOp2
 70
     1
102
RTVSPropertyOp3
 70
     1
102
RTVSPropertyOp4
 70
     1
102
RTVSPropertyOp5
 70
     1
102
RTVSPropertyOp6
 70
     1
102
RTVSPropertyOp7
 70
     1
102
RTVSPropertyOp8
 70
     1
102
RTVSPropertyOp9
 70
     1
102
RTVSPropertyOp10
 70
     1
102
RTVSPropertyOp11
 70
     1
102
RTVSPropertyOp12
 70
     1
102
RTVSPropertyOp13
 70
     1
102
RTVSPropertyOp14
 70
     1
102
RTVSPropertyOp15
 70
     1
102
RTVSPropertyOp16
 70
     1
102
RTVSPropertyOp17
 70
     1
102
RTVSPropertyOp18
 70
     1
102
RTVSPropertyOp19
 70
     1
102
RTVSPropertyOp20
 70
     1
102
RTVSPropertyOp21
 70
     1
102
RTVSPropertyOp22
 70
     1
102
RTVSPropertyOp23
 70
     1
102
RTVSPropertyOp24
 70
     1
102
RTVSPropertyOp25
 70
     1
102
RTVSPropertyOp26
 70
     1
102
RTVSPropertyOp27
 70
     1
102
RTVSPropertyOp28
 70
     1
102
RTVSPropertyOp29
 70
     1
102
RTVSPropertyOp30
 70
     1
102
RTVSPropertyOp31
 70
     1
102
RTVSPropertyOp32
 70
     1
102
RTVSPropertyOp33
 70
     1
102
RTVSPropertyOp34
 70
     1
102
RTVSPropertyOp35
 70
     1
102
RTVSPropertyOp36
 70
     1
102
RTVSPropertyOp37
 70
     1
102
RTVSPropertyOp38
 70
     1
102
RTVSPropertyOp39
 70
     1
102
RTVSPropertyOp40
 70
     1
102
RTVSPropertyOp41
 70
     1
102
RTVSPropertyOp42
 70
     1
102
RTVSPropertyOp43
 70
     1
102
RTVSPropertyOp44
 70
     1
102
RTVSPropertyOp45
 70
     1
102
RTVSPropertyOp46
 70
     1
102
RTVSPropertyOp47
 70
     1
102
RTVSPropertyOp48
 70
     1
102
RTVSPropertyOp49
 70
     1
102
RTVSPropertyOp50
 70
     1
102
RTVSPropertyOp51
 70
     0
102
RTVSPropertyOp52
 70
     0
102
RTVSPropertyOp53
 70
     1
102
RTVSPropertyOp54
 70
     1
102
RTVSPropertyOp55
 70
     1
102
RTVSPropertyOp56
 70
     1
102
RTVSPropertyOp57
 70
     1
102
RTVSPropertyOp58
 70
     1
102
RTVSPropertyOp59
 70
     1
102
RTVSPropertyOp60
 70
     1
102
RTVSPropertyOp61
 70
     1
102
RTVSPropertyOp62
 70
     1
  0
XRECORD
  5
512
102
{ACAD_REACTORS
330
511
102
}
330
511
100
AcDbXrecord
280
     1
102
RTVSPost2010Prop28
280
     0
102
RTVSPost2010PropOp28
 70
     1
102
RTVSPost2010Prop29
280
     1
102
RTVSPost2010PropOp29
 70
     1
102
RTVSPost2010Prop30
280
     1
102
RTVSPost2010PropOp30
 70
     1
102
RTVSPost2010Prop31
280
     0
102
RTVSPost2010PropOp31
 70
     1
102
RTVSPost2010Prop32
280
     0
102
RTVSPost2010PropOp32
 70
     1
102
RTVSPost2010Prop33
280
     0
102
RTVSPost2010PropOp33
 70
     1
102
RTVSPost2010Prop34
280
     0
102
RTVSPost2010PropOp34
 70
     1
102
RTVSPost2010Prop35
280
     0
102
RTVSPost2010PropOp35
 70
     1
102
RTVSPost2010Prop36
280
     0
102
RTVSPost2010PropOp36
 70
     1
102
RTVSPost2010Prop37
 90
       50
102
RTVSPost2010PropOp37
 70
     1
102
RTVSPost2010Prop38
140
0.0
102
RTVSPost2010PropOp38
 70
     1
102
RTVSPost2010Prop39
140
1.0
102
RTVSPost2010PropOp39
 70
     1
102
RTVSPost2010Prop40
 90
        0
102
RTVSPost2010PropOp40
 70
     1
102
RTVSPost2010Prop41ColorIndex
 90
       18
102
RTVSPost2010Prop41ColorRGB
 90
        0
102
RTVSPost2010PropOp41
 70
     1
102
RTVSPost2010Prop42
 90
       50
102
RTVSPost2010PropOp42
 70
     1
102
RTVSPost2010Prop43
 90
        3
102
RTVSPost2010PropOp43
 70
     1
102
RTVSPost2010Prop44ColorIndex
 90
        5
102
RTVSPost2010Prop44ColorRGB
 90
      255
102
RTVSPost2010PropOp44
 70
     1
102
RTVSPost2010Prop45
280
     0
102
RTVSPost2010PropOp45
 70
     1
102
RTVSPost2010Prop46
 90
       50
102
RTVSPost2010PropOp46
 70
     1
102
RTVSPost2010Prop47
 90
       50
102
RTVSPost2010PropOp47
 70
     1
102
RTVSPost2010Prop48
 90
       50
102
RTVSPost2010PropOp48
 70
     1
102
RTVSPost2010Prop49
280
     0
102
RTVSPost2010PropOp49
 70
     1
102
RTVSPost2010Prop50
 90
       50
102
RTVSPost2010PropOp50
 70
     1
102
RTVSPost2010Prop51ColorIndex
 90
      256
102
RTVSPost2010Prop51ColorRGB
 90
-16777216
102
RTVSPost2010PropOp51
 70
     0
102
RTVSPost2010Prop52
140
1.0
102
RTVSPost2010PropOp52
 70
     0
102
RTVSPost2010Prop53
 90
        2
102
RTVSPost2010PropOp53
 70
     1
102
RTVSPost2010Prop54
  1
strokes_ogs.tif
102
RTVSPost2010PropOp54
 70
     1
102
RTVSPost2010Prop55
280
     0
102
RTVSPost2010PropOp55
 70
     1
102
RTVSPost2010Prop56
140
1.0
102
RTVSPost2010PropOp56
 70
     1
102
RTVSPost2010Prop57
140
1.0
102
RTVSPost2010PropOp57
 70
     1
102
RTVSPropertyOp0
 70
     1
102
RTVSPropertyOp1
 70
     1
102
RTVSPropertyOp2
 70
     1
102
RTVSPropertyOp3
 70
     1
102
RTVSPropertyOp4
 70
     1
102
RTVSPropertyOp5
 70
     1
102
RTVSPropertyOp6
 70
     1
102
RTVSPropertyOp7
 70
     1
102
RTVSPropertyOp8
 70
     1
102
RTVSPropertyOp9
 70
     1
102
RTVSPropertyOp10
 70
     1
102
RTVSPropertyOp11
 70
     1
102
RTVSPropertyOp12
 70
     1
102
RTVSPropertyOp13
 70
     1
102
RTVSPropertyOp14
 70
     1
102
RTVSPropertyOp15
 70
     1
102
RTVSPropertyOp16
 70
     1
102
RTVSPropertyOp17
 70
     1
102
RTVSPropertyOp18
 70
     1
102
RTVSPropertyOp19
 70
     1
102
RTVSPropertyOp20
 70
     1
102
RTVSPropertyOp21
 70
     1
102
RTVSPropertyOp22
 70
     1
102
RTVSPropertyOp23
 70
     1
102
RTVSPropertyOp24
 70
     1
102
RTVSPropertyOp25
 70
     1
102
RTVSPropertyOp26
 70
     1
102
RTVSPropertyOp27
 70
     1
102
RTVSPropertyOp28
 70
     1
102
RTVSPropertyOp29
 70
     1
102
RTVSPropertyOp30
 70
     1
102
RTVSPropertyOp31
 70
     1
102
RTVSPropertyOp32
 70
     1
102
RTVSPropertyOp33
 70
     1
102
RTVSPropertyOp34
 70
     1
102
RTVSPropertyOp35
 70
     1
102
RTVSPropertyOp36
 70
     1
102
RTVSPropertyOp37
 70
     1
102
RTVSPropertyOp38
 70
     1
102
RTVSPropertyOp39
 70
     1
102
RTVSPropertyOp40
 70
     1
102
RTVSPropertyOp41
 70
     1
102
RTVSPropertyOp42
 70
     1
102
RTVSPropertyOp43
 70
     1
102
RTVSPropertyOp44
 70
     1
102
RTVSPropertyOp45
 70
     1
102
RTVSPropertyOp46
 70
     1
102
RTVSPropertyOp47
 70
     1
102
RTVSPropertyOp48
 70
     1
102
RTVSPropertyOp49
 70
     1
102
RTVSPropertyOp50
 70
     1
102
RTVSPropertyOp51
 70
     0
102
RTVSPropertyOp52
 70
     0
102
RTVSPropertyOp53
 70
     1
102
RTVSPropertyOp54
 70
     1
102
RTVSPropertyOp55
 70
     1
102
RTVSPropertyOp56
 70
     1
102
RTVSPropertyOp57
 70
     1
102
RTVSPropertyOp58
 70
     1
102
RTVSPropertyOp59
 70
     1
102
RTVSPropertyOp60
 70
     1
102
RTVSPropertyOp61
 70
     1
102
RTVSPropertyOp62
 70
     1
  0
XRECORD
  5
502
102
{ACAD_REACTORS
330
501
102
}
330
501
100
AcDbXrecord
280
     1
102
RTVSPost2010Prop28
280
     0
102
RTVSPost2010PropOp28
 70
     1
102
RTVSPost2010Prop29
280
     1
102
RTVSPost2010PropOp29
 70
     1
102
RTVSPost2010Prop30
280
     1
102
RTVSPost2010PropOp30
 70
     1
102
RTVSPost2010Prop31
280
     0
102
RTVSPost2010PropOp31
 70
     1
102
RTVSPost2010Prop32
280
     0
102
RTVSPost2010PropOp32
 70
     1
102
RTVSPost2010Prop33
280
     0
102
RTVSPost2010PropOp33
 70
     1
102
RTVSPost2010Prop34
280
     0
102
RTVSPost2010PropOp34
 70
     1
102
RTVSPost2010Prop35
280
     0
102
RTVSPost2010PropOp35
 70
     1
102
RTVSPost2010Prop36
280
     0
102
RTVSPost2010PropOp36
 70
     1
102
RTVSPost2010Prop37
 90
       50
102
RTVSPost2010PropOp37
 70
     1
102
RTVSPost2010Prop38
140
0.0
102
RTVSPost2010PropOp38
 70
     1
102
RTVSPost2010Prop39
140
1.0
102
RTVSPost2010PropOp39
 70
     1
102
RTVSPost2010Prop40
 90
        0
102
RTVSPost2010PropOp40
 70
     1
102
RTVSPost2010Prop41ColorIndex
 90
       18
102
RTVSPost2010Prop41ColorRGB
 90
        0
102
RTVSPost2010PropOp41
 70
     1
102
RTVSPost2010Prop42
 90
       50
102
RTVSPost2010PropOp42
 70
     1
102
RTVSPost2010Prop43
 90
        3
102
RTVSPost2010PropOp43
 70
     1
102
RTVSPost2010Prop44ColorIndex
 90
        5
102
RTVSPost2010Prop44ColorRGB
 90
      255
102
RTVSPost2010PropOp44
 70
     1
102
RTVSPost2010Prop45
280
     0
102
RTVSPost2010PropOp45
 70
     1
102
RTVSPost2010Prop46
 90
       50
102
RTVSPost2010PropOp46
 70
     1
102
RTVSPost2010Prop47
 90
       50
102
RTVSPost2010PropOp47
 70
     1
102
RTVSPost2010Prop48
 90
       50
102
RTVSPost2010PropOp48
 70
     1
102
RTVSPost2010Prop49
280
     0
102
RTVSPost2010PropOp49
 70
     1
102
RTVSPost2010Prop50
 90
       50
102
RTVSPost2010PropOp50
 70
     1
102
RTVSPost2010Prop51ColorIndex
 90
      256
102
RTVSPost2010Prop51ColorRGB
 90
-16777216
102
RTVSPost2010PropOp51
 70
     0
102
RTVSPost2010Prop52
140
1.0
102
RTVSPost2010PropOp52
 70
     0
102
RTVSPost2010Prop53
 90
        2
102
RTVSPost2010PropOp53
 70
     1
102
RTVSPost2010Prop54
  1
strokes_ogs.tif
102
RTVSPost2010PropOp54
 70
     1
102
RTVSPost2010Prop55
280
     0
102
RTVSPost2010PropOp55
 70
     1
102
RTVSPost2010Prop56
140
1.0
102
RTVSPost2010PropOp56
 70
     1
102
RTVSPost2010Prop57
140
1.0
102
RTVSPost2010PropOp57
 70
     1
102
RTVSPropertyOp0
 70
     1
102
RTVSPropertyOp1
 70
     1
102
RTVSPropertyOp2
 70
     1
102
RTVSPropertyOp3
 70
     1
102
RTVSPropertyOp4
 70
     1
102
RTVSPropertyOp5
 70
     1
102
RTVSPropertyOp6
 70
     1
102
RTVSPropertyOp7
 70
     1
102
RTVSPropertyOp8
 70
     1
102
RTVSPropertyOp9
 70
     1
102
RTVSPropertyOp10
 70
     1
102
RTVSPropertyOp11
 70
     1
102
RTVSPropertyOp12
 70
     1
102
RTVSPropertyOp13
 70
     1
102
RTVSPropertyOp14
 70
     1
102
RTVSPropertyOp15
 70
     1
102
RTVSPropertyOp16
 70
     1
102
RTVSPropertyOp17
 70
     1
102
RTVSPropertyOp18
 70
     1
102
RTVSPropertyOp19
 70
     1
102
RTVSPropertyOp20
 70
     1
102
RTVSPropertyOp21
 70
     1
102
RTVSPropertyOp22
 70
     1
102
RTVSPropertyOp23
 70
     1
102
RTVSPropertyOp24
 70
     1
102
RTVSPropertyOp25
 70
     1
102
RTVSPropertyOp26
 70
     1
102
RTVSPropertyOp27
 70
     1
102
RTVSPropertyOp28
 70
     1
102
RTVSPropertyOp29
 70
     1
102
RTVSPropertyOp30
 70
     1
102
RTVSPropertyOp31
 70
     1
102
RTVSPropertyOp32
 70
     1
102
RTVSPropertyOp33
 70
     1
102
RTVSPropertyOp34
 70
     1
102
RTVSPropertyOp35
 70
     1
102
RTVSPropertyOp36
 70
     1
102
RTVSPropertyOp37
 70
     1
102
RTVSPropertyOp38
 70
     1
102
RTVSPropertyOp39
 70
     1
102
RTVSPropertyOp40
 70
     1
102
RTVSPropertyOp41
 70
     1
102
RTVSPropertyOp42
 70
     1
102
RTVSPropertyOp43
 70
     1
102
RTVSPropertyOp44
 70
     1
102
RTVSPropertyOp45
 70
     1
102
RTVSPropertyOp46
 70
     1
102
RTVSPropertyOp47
 70
     1
102
RTVSPropertyOp48
 70
     1
102
RTVSPropertyOp49
 70
     1
102
RTVSPropertyOp50
 70
     1
102
RTVSPropertyOp51
 70
     0
102
RTVSPropertyOp52
 70
     0
102
RTVSPropertyOp53
 70
     1
102
RTVSPropertyOp54
 70
     1
102
RTVSPropertyOp55
 70
     1
102
RTVSPropertyOp56
 70
     1
102
RTVSPropertyOp57
 70
     1
102
RTVSPropertyOp58
 70
     1
102
RTVSPropertyOp59
 70
     1
102
RTVSPropertyOp60
 70
     1
102
RTVSPropertyOp61
 70
     1
102
RTVSPropertyOp62
 70
     1
  0
XRECORD
  5
4F6
102
{ACAD_REACTORS
330
4F5
102
}
330
4F5
100
AcDbXrecord
280
     1
102
RTVSPost2010Prop28
280
     0
102
RTVSPost2010PropOp28
 70
     1
102
RTVSPost2010Prop29
280
     1
102
RTVSPost2010PropOp29
 70
     1
102
RTVSPost2010Prop30
280
     1
102
RTVSPost2010PropOp30
 70
     1
102
RTVSPost2010Prop31
280
     0
102
RTVSPost2010PropOp31
 70
     1
102
RTVSPost2010Prop32
280
     0
102
RTVSPost2010PropOp32
 70
     1
102
RTVSPost2010Prop33
280
     0
102
RTVSPost2010PropOp33
 70
     1
102
RTVSPost2010Prop34
280
     0
102
RTVSPost2010PropOp34
 70
     1
102
RTVSPost2010Prop35
280
     0
102
RTVSPost2010PropOp35
 70
     1
102
RTVSPost2010Prop36
280
     0
102
RTVSPost2010PropOp36
 70
     1
102
RTVSPost2010Prop37
 90
       50
102
RTVSPost2010PropOp37
 70
     1
102
RTVSPost2010Prop38
140
0.0
102
RTVSPost2010PropOp38
 70
     1
102
RTVSPost2010Prop39
140
1.0
102
RTVSPost2010PropOp39
 70
     1
102
RTVSPost2010Prop40
 90
        0
102
RTVSPost2010PropOp40
 70
     1
102
RTVSPost2010Prop41ColorIndex
 90
       18
102
RTVSPost2010Prop41ColorRGB
 90
        0
102
RTVSPost2010PropOp41
 70
     1
102
RTVSPost2010Prop42
 90
       50
102
RTVSPost2010PropOp42
 70
     1
102
RTVSPost2010Prop43
 90
        3
102
RTVSPost2010PropOp43
 70
     1
102
RTVSPost2010Prop44ColorIndex
 90
        5
102
RTVSPost2010Prop44ColorRGB
 90
      255
102
RTVSPost2010PropOp44
 70
     1
102
RTVSPost2010Prop45
280
     0
102
RTVSPost2010PropOp45
 70
     1
102
RTVSPost2010Prop46
 90
       50
102
RTVSPost2010PropOp46
 70
     1
102
RTVSPost2010Prop47
 90
       50
102
RTVSPost2010PropOp47
 70
     1
102
RTVSPost2010Prop48
 90
       50
102
RTVSPost2010PropOp48
 70
     1
102
RTVSPost2010Prop49
280
     0
102
RTVSPost2010PropOp49
 70
     1
102
RTVSPost2010Prop50
 90
       50
102
RTVSPost2010PropOp50
 70
     1
102
RTVSPost2010Prop51ColorIndex
 90
      256
102
RTVSPost2010Prop51ColorRGB
 90
-16777216
102
RTVSPost2010PropOp51
 70
     0
102
RTVSPost2010Prop52
140
1.0
102
RTVSPost2010PropOp52
 70
     0
102
RTVSPost2010Prop53
 90
        2
102
RTVSPost2010PropOp53
 70
     1
102
RTVSPost2010Prop54
  1
strokes_ogs.tif
102
RTVSPost2010PropOp54
 70
     1
102
RTVSPost2010Prop55
280
     0
102
RTVSPost2010PropOp55
 70
     1
102
RTVSPost2010Prop56
140
1.0
102
RTVSPost2010PropOp56
 70
     1
102
RTVSPost2010Prop57
140
1.0
102
RTVSPost2010PropOp57
 70
     1
102
RTVSPropertyOp0
 70
     1
102
RTVSPropertyOp1
 70
     1
102
RTVSPropertyOp2
 70
     1
102
RTVSPropertyOp3
 70
     1
102
RTVSPropertyOp4
 70
     1
102
RTVSPropertyOp5
 70
     1
102
RTVSPropertyOp6
 70
     1
102
RTVSPropertyOp7
 70
     1
102
RTVSPropertyOp8
 70
     1
102
RTVSPropertyOp9
 70
     1
102
RTVSPropertyOp10
 70
     1
102
RTVSPropertyOp11
 70
     1
102
RTVSPropertyOp12
 70
     1
102
RTVSPropertyOp13
 70
     1
102
RTVSPropertyOp14
 70
     1
102
RTVSPropertyOp15
 70
     1
102
RTVSPropertyOp16
 70
     1
102
RTVSPropertyOp17
 70
     1
102
RTVSPropertyOp18
 70
     1
102
RTVSPropertyOp19
 70
     1
102
RTVSPropertyOp20
 70
     1
102
RTVSPropertyOp21
 70
     1
102
RTVSPropertyOp22
 70
     1
102
RTVSPropertyOp23
 70
     1
102
RTVSPropertyOp24
 70
     1
102
RTVSPropertyOp25
 70
     1
102
RTVSPropertyOp26
 70
     1
102
RTVSPropertyOp27
 70
     1
102
RTVSPropertyOp28
 70
     1
102
RTVSPropertyOp29
 70
     1
102
RTVSPropertyOp30
 70
     1
102
RTVSPropertyOp31
 70
     1
102
RTVSPropertyOp32
 70
     1
102
RTVSPropertyOp33
 70
     1
102
RTVSPropertyOp34
 70
     1
102
RTVSPropertyOp35
 70
     1
102
RTVSPropertyOp36
 70
     1
102
RTVSPropertyOp37
 70
     1
102
RTVSPropertyOp38
 70
     1
102
RTVSPropertyOp39
 70
     1
102
RTVSPropertyOp40
 70
     1
102
RTVSPropertyOp41
 70
     1
102
RTVSPropertyOp42
 70
     1
102
RTVSPropertyOp43
 70
     1
102
RTVSPropertyOp44
 70
     1
102
RTVSPropertyOp45
 70
     1
102
RTVSPropertyOp46
 70
     1
102
RTVSPropertyOp47
 70
     1
102
RTVSPropertyOp48
 70
     1
102
RTVSPropertyOp49
 70
     1
102
RTVSPropertyOp50
 70
     1
102
RTVSPropertyOp51
 70
     0
102
RTVSPropertyOp52
 70
     0
102
RTVSPropertyOp53
 70
     1
102
RTVSPropertyOp54
 70
     1
102
RTVSPropertyOp55
 70
     1
102
RTVSPropertyOp56
 70
     1
102
RTVSPropertyOp57
 70
     1
102
RTVSPropertyOp58
 70
     1
102
RTVSPropertyOp59
 70
     1
102
RTVSPropertyOp60
 70
     1
102
RTVSPropertyOp61
 70
     1
102
RTVSPropertyOp62
 70
     1
  0
XRECORD
  5
514
102
{ACAD_REACTORS
330
513
102
}
330
513
100
AcDbXrecord
280
     1
102
RTVSPost2010Prop28
280
     0
102
RTVSPost2010PropOp28
 70
     1
102
RTVSPost2010Prop29
280
     1
102
RTVSPost2010PropOp29
 70
     1
102
RTVSPost2010Prop30
280
     1
102
RTVSPost2010PropOp30
 70
     1
102
RTVSPost2010Prop31
280
     0
102
RTVSPost2010PropOp31
 70
     1
102
RTVSPost2010Prop32
280
     0
102
RTVSPost2010PropOp32
 70
     1
102
RTVSPost2010Prop33
280
     0
102
RTVSPost2010PropOp33
 70
     1
102
RTVSPost2010Prop34
280
     0
102
RTVSPost2010PropOp34
 70
     1
102
RTVSPost2010Prop35
280
     0
102
RTVSPost2010PropOp35
 70
     1
102
RTVSPost2010Prop36
280
     0
102
RTVSPost2010PropOp36
 70
     1
102
RTVSPost2010Prop37
 90
       50
102
RTVSPost2010PropOp37
 70
     1
102
RTVSPost2010Prop38
140
0.0
102
RTVSPost2010PropOp38
 70
     1
102
RTVSPost2010Prop39
140
1.0
102
RTVSPost2010PropOp39
 70
     1
102
RTVSPost2010Prop40
 90
        0
102
RTVSPost2010PropOp40
 70
     1
102
RTVSPost2010Prop41ColorIndex
 90
       18
102
RTVSPost2010Prop41ColorRGB
 90
        0
102
RTVSPost2010PropOp41
 70
     1
102
RTVSPost2010Prop42
 90
       50
102
RTVSPost2010PropOp42
 70
     1
102
RTVSPost2010Prop43
 90
        3
102
RTVSPost2010PropOp43
 70
     1
102
RTVSPost2010Prop44ColorIndex
 90
        5
102
RTVSPost2010Prop44ColorRGB
 90
      255
102
RTVSPost2010PropOp44
 70
     1
102
RTVSPost2010Prop45
280
     0
102
RTVSPost2010PropOp45
 70
     1
102
RTVSPost2010Prop46
 90
       50
102
RTVSPost2010PropOp46
 70
     1
102
RTVSPost2010Prop47
 90
       50
102
RTVSPost2010PropOp47
 70
     1
102
RTVSPost2010Prop48
 90
       50
102
RTVSPost2010PropOp48
 70
     1
102
RTVSPost2010Prop49
280
     0
102
RTVSPost2010PropOp49
 70
     1
102
RTVSPost2010Prop50
 90
       50
102
RTVSPost2010PropOp50
 70
     1
102
RTVSPost2010Prop51ColorIndex
 90
      256
102
RTVSPost2010Prop51ColorRGB
 90
-16777216
102
RTVSPost2010PropOp51
 70
     0
102
RTVSPost2010Prop52
140
1.0
102
RTVSPost2010PropOp52
 70
     0
102
RTVSPost2010Prop53
 90
        2
102
RTVSPost2010PropOp53
 70
     1
102
RTVSPost2010Prop54
  1
strokes_ogs.tif
102
RTVSPost2010PropOp54
 70
     1
102
RTVSPost2010Prop55
280
     0
102
RTVSPost2010PropOp55
 70
     1
102
RTVSPost2010Prop56
140
1.0
102
RTVSPost2010PropOp56
 70
     1
102
RTVSPost2010Prop57
140
1.0
102
RTVSPost2010PropOp57
 70
     1
102
RTVSPropertyOp0
 70
     1
102
RTVSPropertyOp1
 70
     1
102
RTVSPropertyOp2
 70
     1
102
RTVSPropertyOp3
 70
     1
102
RTVSPropertyOp4
 70
     1
102
RTVSPropertyOp5
 70
     1
102
RTVSPropertyOp6
 70
     1
102
RTVSPropertyOp7
 70
     1
102
RTVSPropertyOp8
 70
     1
102
RTVSPropertyOp9
 70
     1
102
RTVSPropertyOp10
 70
     1
102
RTVSPropertyOp11
 70
     1
102
RTVSPropertyOp12
 70
     1
102
RTVSPropertyOp13
 70
     1
102
RTVSPropertyOp14
 70
     1
102
RTVSPropertyOp15
 70
     1
102
RTVSPropertyOp16
 70
     1
102
RTVSPropertyOp17
 70
     1
102
RTVSPropertyOp18
 70
     1
102
RTVSPropertyOp19
 70
     1
102
RTVSPropertyOp20
 70
     1
102
RTVSPropertyOp21
 70
     1
102
RTVSPropertyOp22
 70
     1
102
RTVSPropertyOp23
 70
     1
102
RTVSPropertyOp24
 70
     1
102
RTVSPropertyOp25
 70
     1
102
RTVSPropertyOp26
 70
     1
102
RTVSPropertyOp27
 70
     1
102
RTVSPropertyOp28
 70
     1
102
RTVSPropertyOp29
 70
     1
102
RTVSPropertyOp30
 70
     1
102
RTVSPropertyOp31
 70
     1
102
RTVSPropertyOp32
 70
     1
102
RTVSPropertyOp33
 70
     1
102
RTVSPropertyOp34
 70
     1
102
RTVSPropertyOp35
 70
     1
102
RTVSPropertyOp36
 70
     1
102
RTVSPropertyOp37
 70
     1
102
RTVSPropertyOp38
 70
     1
102
RTVSPropertyOp39
 70
     1
102
RTVSPropertyOp40
 70
     1
102
RTVSPropertyOp41
 70
     1
102
RTVSPropertyOp42
 70
     1
102
RTVSPropertyOp43
 70
     1
102
RTVSPropertyOp44
 70
     1
102
RTVSPropertyOp45
 70
     1
102
RTVSPropertyOp46
 70
     1
102
RTVSPropertyOp47
 70
     1
102
RTVSPropertyOp48
 70
     1
102
RTVSPropertyOp49
 70
     1
102
RTVSPropertyOp50
 70
     1
102
RTVSPropertyOp51
 70
     0
102
RTVSPropertyOp52
 70
     0
102
RTVSPropertyOp53
 70
     1
102
RTVSPropertyOp54
 70
     1
102
RTVSPropertyOp55
 70
     1
102
RTVSPropertyOp56
 70
     1
102
RTVSPropertyOp57
 70
     1
102
RTVSPropertyOp58
 70
     1
102
RTVSPropertyOp59
 70
     1
102
RTVSPropertyOp60
 70
     1
102
RTVSPropertyOp61
 70
     1
102
RTVSPropertyOp62
 70
     1
  0
ENDSEC
  0
EOF
