  0
SECTION
  2
HEADER
  9
$ACADVER
  1
AC1015
  9
$ACADMAINTVER
 70
    20
  9
$DWGCODEPAGE
  3
ANSI_1252
  9
$INSBASE
 10
0.0
 20
0.0
 30
0.0
  9
$EXTMIN
 10
-0.000000007700903
 20
-0.0000000100690745
 30
0.0
  9
$EXTMAX
 10
2.362000017843139
 20
0.7090000113163431
 30
0.0
  9
$LIMMIN
 10
0.0
 20
0.0
  9
$LIMMAX
 10
420.0
 20
297.0
  9
$ORTHOMODE
 70
     0
  9
$REGENMODE
 70
     1
  9
$FILLMODE
 70
     1
  9
$QTEXTMODE
 70
     0
  9
$MIRRTEXT
 70
     0
  9
$LTSCALE
 40
1.0
  9
$ATTMODE
 70
     1
  9
$TEXTSIZE
 40
2.5
  9
$TRACEWID
 40
1.0
  9
$TEXTSTYLE
  7
Standard
  9
$CLAYER
  8
0
  9
$CELTYPE
  6
ByLayer
  9
$CECOLOR
 62
   256
  9
$CELTSCALE
 40
1.0
  9
$DISPSILH
 70
     0
  9
$DIMSCALE
 40
1.0
  9
$DIMASZ
 40
2.5
  9
$DIMEXO
 40
0.625
  9
$DIMDLI
 40
3.75
  9
$DIMRND
 40
0.0
  9
$DIMDLE
 40
0.0
  9
$DIMEXE
 40
1.25
  9
$DIMTP
 40
0.0
  9
$DIMTM
 40
0.0
  9
$DIMTXT
 40
2.5
  9
$DIMCEN
 40
2.5
  9
$DIMTSZ
 40
0.0
  9
$DIMTOL
 70
     0
  9
$DIMLIM
 70
     0
  9
$DIMTIH
 70
     0
  9
$DIMTOH
 70
     0
  9
$DIMSE1
 70
     0
  9
$DIMSE2
 70
     0
  9
$DIMTAD
 70
     1
  9
$DIMZIN
 70
     8
  9
$DIMBLK
  1

  9
$DIMASO
 70
     1
  9
$DIMSHO
 70
     1
  9
$DIMPOST
  1

  9
$DIMAPOST
  1

  9
$DIMALT
 70
     0
  9
$DIMALTD
 70
     3
  9
$DIMALTF
 40
0.03937007874016
  9
$DIMLFAC
 40
1.0
  9
$DIMTOFL
 70
     1
  9
$DIMTVP
 40
0.0
  9
$DIMTIX
 70
     0
  9
$DIMSOXD
 70
     0
  9
$DIMSAH
 70
     0
  9
$DIMBLK1
  1

  9
$DIMBLK2
  1

  9
$DIMSTYLE
  2
ISO-25
  9
$DIMCLRD
 70
     0
  9
$DIMCLRE
 70
     0
  9
$DIMCLRT
 70
     0
  9
$DIMTFAC
 40
1.0
  9
$DIMGAP
 40
0.625
  9
$DIMJUST
 70
     0
  9
$DIMSD1
 70
     0
  9
$DIMSD2
 70
     0
  9
$DIMTOLJ
 70
     0
  9
$DIMTZIN
 70
     8
  9
$DIMALTZ
 70
     0
  9
$DIMALTTZ
 70
     0
  9
$DIMUPT
 70
     0
  9
$DIMDEC
 70
     2
  9
$DIMTDEC
 70
     2
  9
$DIMALTU
 70
     2
  9
$DIMALTTD
 70
     3
  9
$DIMTXSTY
  7
Standard
  9
$DIMAUNIT
 70
     0
  9
$DIMADEC
 70
     0
  9
$DIMALTRND
 40
0.0
  9
$DIMAZIN
 70
     0
  9
$DIMDSEP
 70
    44
  9
$DIMATFIT
 70
     3
  9
$DIMFRAC
 70
     0
  9
$DIMLDRBLK
  1

  9
$DIMLUNIT
 70
     2
  9
$DIMLWD
 70
    -2
  9
$DIMLWE
 70
    -2
  9
$DIMTMOVE
 70
     0
  9
$LUNITS
 70
     2
  9
$LUPREC
 70
     4
  9
$SKETCHINC
 40
1.0
  9
$FILLETRAD
 40
0.0
  9
$AUNITS
 70
     0
  9
$AUPREC
 70
     0
  9
$MENU
  1
.
  9
$ELEVATION
 40
0.0
  9
$PELEVATION
 40
0.0
  9
$THICKNESS
 40
0.0
  9
$LIMCHECK
 70
     0
  9
$CHAMFERA
 40
0.0
  9
$CHAMFERB
 40
0.0
  9
$CHAMFERC
 40
0.0
  9
$CHAMFERD
 40
0.0
  9
$SKPOLY
 70
     0
  9
$TDCREATE
 40
2458166.469966319
  9
$TDUCREATE
 40
2458166.678299653
  9
$TDUPDATE
 40
2458166.480816887
  9
$TDUUPDATE
 40
2458166.689150220
  9
$TDINDWG
 40
0.0026350231
  9
$TDUSRTIMER
 40
0.0026347685
  9
$USRTIMER
 70
     1
  9
$ANGBASE
 50
0.0
  9
$ANGDIR
 70
     0
  9
$PDMODE
 70
     0
  9
$PDSIZE
 40
0.0
  9
$PLINEWID
 40
0.0
  9
$SPLFRAME
 70
     0
  9
$SPLINETYPE
 70
     6
  9
$SPLINESEGS
 70
     8
  9
$HANDSEED
  5
6B9
  9
$SURFTAB1
 70
     6
  9
$SURFTAB2
 70
     6
  9
$SURFTYPE
 70
     6
  9
$SURFU
 70
     6
  9
$SURFV
 70
     6
  9
$UCSBASE
  2

  9
$UCSNAME
  2

  9
$UCSORG
 10
0.0
 20
0.0
 30
0.0
  9
$UCSXDIR
 10
1.0
 20
0.0
 30
0.0
  9
$UCSYDIR
 10
0.0
 20
1.0
 30
0.0
  9
$UCSORTHOREF
  2

  9
$UCSORTHOVIEW
 70
     0
  9
$UCSORGTOP
 10
0.0
 20
0.0
 30
0.0
  9
$UCSORGBOTTOM
 10
0.0
 20
0.0
 30
0.0
  9
$UCSORGLEFT
 10
0.0
 20
0.0
 30
0.0
  9
$UCSORGRIGHT
 10
0.0
 20
0.0
 30
0.0
  9
$UCSORGFRONT
 10
0.0
 20
0.0
 30
0.0
  9
$UCSORGBACK
 10
0.0
 20
0.0
 30
0.0
  9
$PUCSBASE
  2

  9
$PUCSNAME
  2

  9
$PUCSORG
 10
0.0
 20
0.0
 30
0.0
  9
$PUCSXDIR
 10
1.0
 20
0.0
 30
0.0
  9
$PUCSYDIR
 10
0.0
 20
1.0
 30
0.0
  9
$PUCSORTHOREF
  2

  9
$PUCSORTHOVIEW
 70
     0
  9
$PUCSORGTOP
 10
0.0
 20
0.0
 30
0.0
  9
$PUCSORGBOTTOM
 10
0.0
 20
0.0
 30
0.0
  9
$PUCSORGLEFT
 10
0.0
 20
0.0
 30
0.0
  9
$PUCSORGRIGHT
 10
0.0
 20
0.0
 30
0.0
  9
$PUCSORGFRONT
 10
0.0
 20
0.0
 30
0.0
  9
$PUCSORGBACK
 10
0.0
 20
0.0
 30
0.0
  9
$USERI1
 70
     0
  9
$USERI2
 70
     0
  9
$USERI3
 70
     0
  9
$USERI4
 70
     0
  9
$USERI5
 70
     0
  9
$USERR1
 40
0.0
  9
$USERR2
 40
0.0
  9
$USERR3
 40
0.0
  9
$USERR4
 40
0.0
  9
$USERR5
 40
0.0
  9
$WORLDVIEW
 70
     1
  9
$SHADEDGE
 70
     3
  9
$SHADEDIF
 70
    70
  9
$TILEMODE
 70
     1
  9
$MAXACTVP
 70
    64
  9
$PINSBASE
 10
0.0
 20
0.0
 30
0.0
  9
$PLIMCHECK
 70
     0
  9
$PEXTMIN
 10
0.0
 20
0.0
 30
0.0
  9
$PEXTMAX
 10
0.0
 20
0.0
 30
0.0
  9
$PLIMMIN
 10
0.0
 20
0.0
  9
$PLIMMAX
 10
12.0
 20
9.0
  9
$UNITMODE
 70
     0
  9
$VISRETAIN
 70
     1
  9
$PLINEGEN
 70
     0
  9
$PSLTSCALE
 70
     1
  9
$TREEDEPTH
 70
  3020
  9
$CMLSTYLE
  2
Standard
  9
$CMLJUST
 70
     0
  9
$CMLSCALE
 40
20.0
  9
$PROXYGRAPHICS
 70
     1
  9
$MEASUREMENT
 70
     1
  9
$CELWEIGHT
370
    -1
  9
$ENDCAPS
280
     0
  9
$JOINSTYLE
280
     0
  9
$LWDISPLAY
290
     0
  9
$INSUNITS
 70
     1
  9
$HYPERLINKBASE
  1

  9
$STYLESHEET
  1

  9
$XEDIT
290
     1
  9
$CEPSNTYPE
380
     0
  9
$PSTYLEMODE
290
     1
  9
$FINGERPRINTGUID
  2
{E3E9843C-4F12-46E4-9102-C17839327532}
  9
$VERSIONGUID
  2
{67C0EDBA-8182-4FC1-A13D-DB2D19E239E9}
  9
$EXTNAMES
290
     1
  9
$PSVPSCALE
 40
0.0
  9
$OLESTARTUP
290
     0
  0
ENDSEC
  0
SECTION
  2
CLASSES
  0
CLASS
  1
ACDBDICTIONARYWDFLT
  2
AcDbDictionaryWithDefault
  3
ObjectDBX Classes
 90
        0
280
     0
281
     0
  0
CLASS
  1
ACDBPLACEHOLDER
  2
AcDbPlaceHolder
  3
ObjectDBX Classes
 90
        0
280
     0
281
     0
  0
CLASS
  1
LAYOUT
  2
AcDbLayout
  3
ObjectDBX Classes
 90
        0
280
     0
281
     0
  0
CLASS
  1
DICTIONARYVAR
  2
AcDbDictionaryVar
  3
ObjectDBX Classes
 90
        0
280
     0
281
     0
  0
CLASS
  1
TABLESTYLE
  2
AcDbTableStyle
  3
ObjectDBX Classes
 90
     4095
280
     0
281
     0
  0
CLASS
  1
MATERIAL
  2
AcDbMaterial
  3
ObjectDBX Classes
 90
     1153
280
     0
281
     0
  0
CLASS
  1
VISUALSTYLE
  2
AcDbVisualStyle
  3
ObjectDBX Classes
 90
     4095
280
     0
281
     0
  0
CLASS
  1
SCALE
  2
AcDbScale
  3
ObjectDBX Classes
 90
     1153
280
     0
281
     0
  0
CLASS
  1
MLEADERSTYLE
  2
AcDbMLeaderStyle
  3
ACDB_MLEADERSTYLE_CLASS
 90
     4095
280
     0
281
     0
  0
CLASS
  1
CELLSTYLEMAP
  2
AcDbCellStyleMap
  3
ObjectDBX Classes
 90
     1152
280
     0
281
     0
  0
CLASS
  1
EXACXREFPANELOBJECT
  2
ExAcXREFPanelObject
  3
EXAC_ESW
 90
    33793
280
     0
281
     0
  0
CLASS
  1
NPOCOLLECTION
  2
AcDbImpNonPersistentObjectsCollection
  3
ObjectDBX Classes
 90
    33921
280
     0
281
     0
  0
CLASS
  1
LAYER_INDEX
  2
AcDbLayerIndex
  3
ObjectDBX Classes
 90
    32768
280
     0
281
     0
  0
CLASS
  1
SPATIAL_INDEX
  2
AcDbSpatialIndex
  3
ObjectDBX Classes
 90
    32768
280
     0
281
     0
  0
CLASS
  1
IDBUFFER
  2
AcDbIdBuffer
  3
ObjectDBX Classes
 90
    32768
280
     0
281
     0
  0
CLASS
  1
ACDBSECTIONVIEWSTYLE
  2
AcDbSectionViewStyle
  3
ObjectDBX Classes
 90
     1025
280
     0
281
     0
  0
CLASS
  1
ACDBDETAILVIEWSTYLE
  2
AcDbDetailViewStyle
  3
ObjectDBX Classes
 90
     1025
280
     0
281
     0
  0
CLASS
  1
SORTENTSTABLE
  2
AcDbSortentsTable
  3
ObjectDBX Classes
 90
        0
280
     0
281
     0
  0
ENDSEC
  0
SECTION
  2
TABLES
  0
TABLE
  2
VPORT
  5
8
330
0
100
AcDbSymbolTable
 70
     1
  0
VPORT
  5
EA
330
8
100
AcDbSymbolTableRecord
100
AcDbViewportTableRecord
  2
*Active
 70
     0
 10
0.0
 20
0.0
 11
1.0
 21
1.0
 12
1.16871995218662
 22
0.0769824346295147
 13
0.0
 23
0.0
 14
10.0
 24
10.0
 15
10.0
 25
10.0
 16
0.0
 26
0.0
 36
1.0
 17
0.0
 27
0.0
 37
0.0
 40
2.62294131059586
 41
1.473039215686274
 42
50.0
 43
0.0
 44
0.0
 50
0.0
 51
0.0
 71
     0
 72
  1000
 73
     1
 74
     3
 75
     0
 76
     0
 77
     0
 78
     0
281
     0
 65
     1
110
0.0
120
0.0
130
0.0
111
1.0
121
0.0
131
0.0
112
0.0
122
1.0
132
0.0
 79
     0
146
0.0
1001
ACAD_NAV_VCDISPLAY
1070
     3
  0
ENDTAB
  0
TABLE
  2
LTYPE
  5
5
330
0
100
AcDbSymbolTable
 70
     1
  0
LTYPE
  5
14
330
5
100
AcDbSymbolTableRecord
100
AcDbLinetypeTableRecord
  2
ByBlock
 70
     0
  3

 72
    65
 73
     0
 40
0.0
  0
LTYPE
  5
15
330
5
100
AcDbSymbolTableRecord
100
AcDbLinetypeTableRecord
  2
ByLayer
 70
     0
  3

 72
    65
 73
     0
 40
0.0
  0
LTYPE
  5
16
330
5
100
AcDbSymbolTableRecord
100
AcDbLinetypeTableRecord
  2
Continuous
 70
     0
  3
Solid line
 72
    65
 73
     0
 40
0.0
  0
ENDTAB
  0
TABLE
  2
LAYER
  5
2
102
{ACAD_XDICTIONARY
360
1FF
102
}
330
0
100
AcDbSymbolTable
 70
    12
  0
LAYER
  5
10
102
{ACAD_XDICTIONARY
360
13C
102
}
330
2
100
AcDbSymbolTableRecord
100
AcDbLayerTableRecord
  2
0
 70
     0
 62
     7
  6
Continuous
370
    -3
390
F
  0
LAYER
  5
231
102
{ACAD_XDICTIONARY
360
232
102
}
330
2
100
AcDbSymbolTableRecord
100
AcDbLayerTableRecord
  2
L01
 70
     0
 62
    80
  6
Continuous
370
    -3
390
F
  0
LAYER
  5
233
102
{ACAD_XDICTIONARY
360
234
102
}
330
2
100
AcDbSymbolTableRecord
100
AcDbLayerTableRecord
  2
OUTLINE
 70
     0
 62
     7
  6
Continuous
370
    -3
390
F
  0
LAYER
  5
235
102
{ACAD_XDICTIONARY
360
236
102
}
330
2
100
AcDbSymbolTableRecord
100
AcDbLayerTableRecord
  2
FAB
 70
     0
 62
     7
  6
Continuous
370
    -3
390
F
  0
LAYER
  5
237
102
{ACAD_XDICTIONARY
360
238
102
}
330
2
100
AcDbSymbolTableRecord
100
AcDbLayerTableRecord
  2
PLATED
 70
     0
 62
     8
  6
Continuous
370
    -3
390
F
  0
LAYER
  5
239
102
{ACAD_XDICTIONARY
360
23A
102
}
330
2
100
AcDbSymbolTableRecord
100
AcDbLayerTableRecord
  2
L04
 70
     0
 62
   172
  6
Continuous
370
    -3
390
F
  0
LAYER
  5
23B
330
2
100
AcDbSymbolTableRecord
100
AcDbLayerTableRecord
  2
NON-PLATED
 70
     0
 62
     7
  6
Continuous
370
    -3
390
F
  0
LAYER
  5
23C
102
{ACAD_XDICTIONARY
360
23D
102
}
330
2
100
AcDbSymbolTableRecord
100
AcDbLayerTableRecord
  2
SSB-WHITE
 70
     0
 62
     8
  6
Continuous
370
    -3
390
F
  0
LAYER
  5
23E
330
2
100
AcDbSymbolTableRecord
100
AcDbLayerTableRecord
  2
SST-BLUE
 70
     0
 62
   174
  6
Continuous
370
    -3
390
F
1001
ACAECLAYERSTANDARD
1000

1000

  0
LAYER
  5
23F
330
2
100
AcDbSymbolTableRecord
100
AcDbLayerTableRecord
  2
L02
 70
     0
 62
   172
  6
Continuous
370
    -3
390
F
1001
ACAECLAYERSTANDARD
1000

1000

1001
AcCmTransparency
1071
        0
  0
LAYER
  5
240
330
2
100
AcDbSymbolTableRecord
100
AcDbLayerTableRecord
  2
L03
 70
     0
 62
   172
  6
Continuous
370
    -3
390
F
1001
ACAECLAYERSTANDARD
1000

1000

1001
AcCmTransparency
1071
        0
  0
LAYER
  5
241
330
2
100
AcDbSymbolTableRecord
100
AcDbLayerTableRecord
  2
SSB-BLUE
 70
     0
 62
   140
  6
Continuous
370
    -3
390
F
1001
ACAECLAYERSTANDARD
1000

1000

1001
AcCmTransparency
1071
        0
  0
ENDTAB
  0
TABLE
  2
STYLE
  5
3
330
0
100
AcDbSymbolTable
 70
     2
  0
STYLE
  5
11
330
3
100
AcDbSymbolTableRecord
100
AcDbTextStyleTableRecord
  2
Standard
 70
     0
 40
0.0
 41
1.0
 50
0.0
 71
     0
 42
2.5
  3
arial.ttf
  4

1001
ACAD
1000
Arial
1071
       34
  0
STYLE
  5
132
330
3
100
AcDbSymbolTableRecord
100
AcDbTextStyleTableRecord
  2
Annotative
 70
     0
 40
0.0
 41
1.0
 50
0.0
 71
     0
 42
2.5
  3
arial.ttf
  4

1001
AcadAnnotative
1000
AnnotativeData
1002
{
1070
     1
1070
     1
1002
}
1001
ACAD
1000
Arial
1071
       34
  0
ENDTAB
  0
TABLE
  2
VIEW
  5
6
330
0
100
AcDbSymbolTable
 70
     0
  0
ENDTAB
  0
TABLE
  2
UCS
  5
7
330
0
100
AcDbSymbolTable
 70
     0
  0
ENDTAB
  0
TABLE
  2
APPID
  5
9
330
0
100
AcDbSymbolTable
 70
    10
  0
APPID
  5
12
330
9
100
AcDbSymbolTableRecord
100
AcDbRegAppTableRecord
  2
ACAD
 70
     0
  0
APPID
  5
9E
330
9
100
AcDbSymbolTableRecord
100
AcDbRegAppTableRecord
  2
ACAD_PSEXT
 70
     0
  0
APPID
  5
133
330
9
100
AcDbSymbolTableRecord
100
AcDbRegAppTableRecord
  2
AcadAnnoPO
 70
     0
  0
APPID
  5
134
330
9
100
AcDbSymbolTableRecord
100
AcDbRegAppTableRecord
  2
AcadAnnotative
 70
     0
  0
APPID
  5
135
330
9
100
AcDbSymbolTableRecord
100
AcDbRegAppTableRecord
  2
ACAD_DSTYLE_DIMJAG
 70
     0
  0
APPID
  5
136
330
9
100
AcDbSymbolTableRecord
100
AcDbRegAppTableRecord
  2
ACAD_DSTYLE_DIMTALN
 70
     0
  0
APPID
  5
165
330
9
100
AcDbSymbolTableRecord
100
AcDbRegAppTableRecord
  2
ACAD_MLEADERVER
 70
     0
  0
APPID
  5
217
330
9
100
AcDbSymbolTableRecord
100
AcDbRegAppTableRecord
  2
ACAD_NAV_VCDISPLAY
 70
     0
  0
APPID
  5
242
330
9
100
AcDbSymbolTableRecord
100
AcDbRegAppTableRecord
  2
ACAECLAYERSTANDARD
 70
     0
  0
APPID
  5
243
330
9
100
AcDbSymbolTableRecord
100
AcDbRegAppTableRecord
  2
AcCmTransparency
 70
     0
  0
ENDTAB
  0
TABLE
  2
DIMSTYLE
  5
A
330
0
100
AcDbSymbolTable
 70
     3
100
AcDbDimStyleTable
 71
     2
340
27
340
137
  0
DIMSTYLE
105
1B0
330
A
100
AcDbSymbolTableRecord
100
AcDbDimStyleTableRecord
  2
Standard
 70
     0
340
11
  0
DIMSTYLE
105
137
330
A
100
AcDbSymbolTableRecord
100
AcDbDimStyleTableRecord
  2
Annotative
 70
     0
 40
0.0
 41
2.5
 42
0.625
 43
3.75
 44
1.25
 73
     0
 74
     0
 77
     1
 78
     8
140
2.5
141
2.5
143
0.03937007874016
147
0.625
171
     3
172
     1
271
     2
272
     2
274
     3
278
    44
283
     0
284
     8
340
11
1001
AcadAnnotative
1000
AnnotativeData
1002
{
1070
     1
1070
     1
1002
}
1001
ACAD_DSTYLE_DIMJAG
1070
   388
1040
1.5
1001
ACAD_DSTYLE_DIMTALN
1070
   392
1070
     0
  0
DIMSTYLE
105
27
330
A
100
AcDbSymbolTableRecord
100
AcDbDimStyleTableRecord
  2
ISO-25
 70
     0
 41
2.5
 42
0.625
 43
3.75
 44
1.25
 73
     0
 74
     0
 77
     1
 78
     8
140
2.5
141
2.5
143
0.03937007874016
147
0.625
171
     3
172
     1
271
     2
272
     2
274
     3
278
    44
283
     0
284
     8
340
11
  0
ENDTAB
  0
TABLE
  2
BLOCK_RECORD
  5
1
330
0
100
AcDbSymbolTable
 70
     5
  0
BLOCK_RECORD
  5
1F
102
{ACAD_XDICTIONARY
360
1CE
102
}
330
1
100
AcDbSymbolTableRecord
100
AcDbBlockTableRecord
  2
*Model_Space
340
22
  0
BLOCK_RECORD
  5
D2
330
1
100
AcDbSymbolTableRecord
100
AcDbBlockTableRecord
  2
*Paper_Space
340
D3
  0
BLOCK_RECORD
  5
D6
330
1
100
AcDbSymbolTableRecord
100
AcDbBlockTableRecord
  2
*Paper_Space0
340
D7
  0
ENDTAB
  0
ENDSEC
  0
SECTION
  2
BLOCKS
  0
BLOCK
  5
20
330
1F
100
AcDbEntity
  8
0
100
AcDbBlockBegin
  2
*Model_Space
 70
     0
 10
0.0
 20
0.0
 30
0.0
  3
*Model_Space
  1

  0
ENDBLK
  5
21
330
1F
100
AcDbEntity
  8
0
100
AcDbBlockEnd
  0
BLOCK
  5
D4
330
D2
100
AcDbEntity
 67
     1
  8
0
100
AcDbBlockBegin
  2
*Paper_Space
 70
     0
 10
0.0
 20
0.0
 30
0.0
  3
*Paper_Space
  1

  0
ENDBLK
  5
D5
330
D2
100
AcDbEntity
 67
     1
  8
0
100
AcDbBlockEnd
  0
BLOCK
  5
D8
330
D6
100
AcDbEntity
 67
     1
  8
0
100
AcDbBlockBegin
  2
*Paper_Space0
 70
     0
 10
0.0
 20
0.0
 30
0.0
  3
*Paper_Space0
  1

  0
ENDBLK
  5
D9
330
D6
100
AcDbEntity
 67
     1
  8
0
100
AcDbBlockEnd
  0
ENDSEC
  0
SECTION
  2
ENTITIES
  0
LWPOLYLINE
  5
637
330
1F
100
AcDbEntity
  8
OUTLINE
370
     0
100
AcDbPolyline
 90
        4
 70
     1
 43
0.0
 10
-0.0000000066829102
 20
0.7089999936355738
 10
-0.0000000066829102
 20
-0.0000000063644272
 10
2.361999993317084
 20
-0.0000000063644272
 10
2.361999993317084
 20
0.7089999936355738
  0
CIRCLE
  5
638
330
1F
100
AcDbEntity
  8
PLATED
370
     0
100
AcDbCircle
 10
2.346999993317099
 20
0.3974999936355768
 30
0.0
 40
0.006
  0
CIRCLE
  5
639
330
1F
100
AcDbEntity
  8
PLATED
370
     0
100
AcDbCircle
 10
0.010999993317113
 20
0.375499993635529
 30
0.0
 40
0.004
  0
CIRCLE
  5
63A
330
1F
100
AcDbEntity
  8
PLATED
370
     0
100
AcDbCircle
 10
2.346999993317099
 20
0.4224999936355581
 30
0.0
 40
0.006
  0
CIRCLE
  5
63B
330
1F
100
AcDbEntity
  8
PLATED
370
     0
100
AcDbCircle
 10
0.010999993317113
 20
0.3334999936356158
 30
0.0
 40
0.004
  0
CIRCLE
  5
63C
330
1F
100
AcDbEntity
  8
PLATED
370
     0
100
AcDbCircle
 10
0.0149999933170761
 20
0.311499993635568
 30
0.0
 40
0.006
  0
CIRCLE
  5
63D
330
1F
100
AcDbEntity
  8
PLATED
370
     0
100
AcDbCircle
 10
2.35099999331706
 20
0.375499993635529
 30
0.0
 40
0.004
  0
CIRCLE
  5
63E
330
1F
100
AcDbEntity
  8
PLATED
370
     0
100
AcDbCircle
 10
0.0149999933170761
 20
0.2864999936355872
 30
0.0
 40
0.006
  0
CIRCLE
  5
63F
330
1F
100
AcDbEntity
  8
PLATED
370
     0
100
AcDbCircle
 10
0.0149999933170761
 20
0.4224999936355581
 30
0.0
 40
0.006
  0
CIRCLE
  5
640
330
1F
100
AcDbEntity
  8
PLATED
370
     0
100
AcDbCircle
 10
2.346999993317099
 20
0.2864999936355872
 30
0.0
 40
0.006
  0
CIRCLE
  5
641
330
1F
100
AcDbEntity
  8
PLATED
370
     0
100
AcDbCircle
 10
0.0149999933170761
 20
0.3974999936355768
 30
0.0
 40
0.006
  0
CIRCLE
  5
642
330
1F
100
AcDbEntity
  8
PLATED
370
     0
100
AcDbCircle
 10
2.35099999331706
 20
0.3334999936356158
 30
0.0
 40
0.004
  0
CIRCLE
  5
643
330
1F
100
AcDbEntity
  8
PLATED
370
     0
100
AcDbCircle
 10
2.346999993317099
 20
0.311499993635568
 30
0.0
 40
0.006
  0
LWPOLYLINE
  5
644
330
1F
100
AcDbEntity
  8
L02
370
     0
100
AcDbPolyline
 90
        4
 70
     1
 43
0.0
 10
-0.0000000066829102
 20
0.6939999936355897
 10
-0.0000000066829102
 20
0.0149999936355574
 10
2.361999993317084
 20
0.0149999936355583
 10
2.361999993317084
 20
0.6939999936355905
  0
LWPOLYLINE
  5
645
330
1F
100
AcDbEntity
  8
L01
  6
Continuous
370
     0
100
AcDbPolyline
 90
       12
 70
     1
 43
0.0
 10
-0.0000000066829102
 20
0.359999993635558
 10
-0.0000000066829102
 20
0.3599999936354425
 10
-0.0000000066829102
 20
0.3489999936354753
 10
-0.0000000066829102
 20
0.3489999936355907
 10
0.0499999933171012
 20
0.3458499936355848
 10
2.311999993317074
 20
0.3458499936355848
 10
2.361999993317084
 20
0.3489999936355907
 10
2.361999993317084
 20
0.3489999936355907
 10
2.361999993317084
 20
0.359999993635558
 10
2.361999993317084
 20
0.359999993635558
 10
2.311999993317074
 20
0.3631499936355618
 10
0.0499999933171012
 20
0.3631499936355618
  0
TEXT
  5
646
330
1F
100
AcDbEntity
  8
SST-BLUE
370
     0
100
AcDbText
 10
0.9103681033065635
 20
0.203203901079719
 30
0.0
 40
0.05
  1
020-020-2.362Fn
 72
     1
 11
1.178325129227436
 21
0.228203901079719
 31
0.0
100
AcDbText
 73
     2
1001
ACAD
1000
ACAD_MTEXT_DEFINED_HEIGHT_BEGIN
1070
    46
1040
0.0612507874
1000
ACAD_MTEXT_DEFINED_HEIGHT_END
  0
TEXT
  5
647
330
1F
100
AcDbEntity
  8
SST-BLUE
370
     0
100
AcDbText
 10
1.029557379968033
 20
0.032600476545284
 30
0.0
 40
0.05
  1
8 RO4003
 72
     1
 11
1.188766111209506
 21
0.057600476545284
 31
0.0
100
AcDbText
 73
     2
1001
ACAD
1000
ACAD_MTEXT_DEFINED_HEIGHT_BEGIN
1070
    46
1040
0.0613298429
1000
ACAD_MTEXT_DEFINED_HEIGHT_END
  0
TEXT
  5
648
330
1F
100
AcDbEntity
  8
SST-BLUE
370
     0
100
AcDbText
 10
0.9794079212925746
 20
0.116772454062707
 30
0.0
 40
0.05
  1
W17.3 11-50
 72
     1
 11
1.179373814880569
 21
0.141772454062707
 31
0.0
100
AcDbText
 73
     2
1001
ACAD
1000
ACAD_MTEXT_DEFINED_HEIGHT_BEGIN
1070
    46
1040
0.0613298429
1000
ACAD_MTEXT_DEFINED_HEIGHT_END
  0
TEXT
  5
649
330
1F
100
AcDbEntity
  8
SST-BLUE
370
     0
100
AcDbText
 10
0.88528283727655
 20
0.6116638652898349
 30
0.0
 40
0.05
  1
6cm Test Fixture B
 72
     1
 11
1.178325129227436
 21
0.6366638652898349
 31
0.0
100
AcDbText
 73
     2
1001
ACAD
1000
ACAD_MTEXT_DEFINED_HEIGHT_BEGIN
1070
    46
1040
0.0612507874
1000
ACAD_MTEXT_DEFINED_HEIGHT_END
  0
TEXT
  5
64A
330
1F
100
AcDbEntity
  8
SST-BLUE
370
     0
100
AcDbText
 10
0.248439291019794
 20
0.1750348677644168
 30
0.0
 40
0.05
  1
Port 1
 72
     1
 11
0.3416180086187026
 21
0.2000348677644168
 31
0.0
100
AcDbText
 73
     2
1001
ACAD
1000
ACAD_MTEXT_DEFINED_HEIGHT_BEGIN
1070
    46
1040
0.0613298429
1000
ACAD_MTEXT_DEFINED_HEIGHT_END
  0
TEXT
  5
64B
330
1F
100
AcDbEntity
  8
SST-BLUE
370
     0
100
AcDbText
 10
1.926895082219828
 20
0.1750348677644168
 30
0.0
 40
0.05
  1
Port 2
 72
     1
 11
2.020073799818736
 21
0.2000348677644168
 31
0.0
100
AcDbText
 73
     2
1001
ACAD
1000
ACAD_MTEXT_DEFINED_HEIGHT_BEGIN
1070
    46
1040
0.0613298429
1000
ACAD_MTEXT_DEFINED_HEIGHT_END
  0
TEXT
  5
64C
330
1F
100
AcDbEntity
  8
SST-BLUE
370
     0
100
AcDbText
 10
0.2553093928980753
 20
0.4844031822622918
 30
0.0
 40
0.05
  1
J7
 72
     1
 11
0.292195477481977
 21
0.5094031822622918
 31
0.0
100
AcDbText
 73
     2
1001
ACAD
1000
ACAD_MTEXT_DEFINED_HEIGHT_BEGIN
1070
    46
1040
0.0613298429
1000
ACAD_MTEXT_DEFINED_HEIGHT_END
  0
TEXT
  5
64D
330
1F
100
AcDbEntity
  8
SST-BLUE
370
     0
100
AcDbText
 10
2.040319379547835
 20
0.4844031822622918
 30
0.0
 40
0.05
  1
J8
 72
     1
 11
2.077205464131736
 21
0.5094031822622918
 31
0.0
100
AcDbText
 73
     2
1001
ACAD
1000
ACAD_MTEXT_DEFINED_HEIGHT_BEGIN
1070
    46
1040
0.0613298429
1000
ACAD_MTEXT_DEFINED_HEIGHT_END
  0
LWPOLYLINE
  5
64E
330
1F
100
AcDbEntity
  8
L04
370
     0
100
AcDbPolyline
 90
        4
 70
     1
 43
0.0
 10
-0.0000000066829102
 20
0.6939999936354751
 10
-0.0000000066829102
 20
0.0149999936354428
 10
2.361999993317084
 20
0.0149999936355583
 10
2.361999993317084
 20
0.6939999936355905
  0
LWPOLYLINE
  5
64F
330
1F
100
AcDbEntity
  8
L03
370
     0
100
AcDbPolyline
 90
        4
 70
     1
 43
0.0
 10
0.0299999861407265
 20
0.6939999644936648
 10
2.331999986140788
 20
0.6939999644936648
 10
2.331999986140788
 20
0.0149999644936347
 10
0.0299999861407265
 20
0.0149999644936347
  0
TEXT
  5
650
330
1F
100
AcDbEntity
  8
SST-BLUE
370
     0
100
AcDbText
 10
1.568424696520936
 20
0.0359920319239028
 30
0.0
 40
0.05
  1
907-000-10143
 72
     1
 11
1.805344887516843
 21
0.0609920319239028
 31
0.0
100
AcDbText
 73
     2
1001
ACAD
1000
ACAD_MTEXT_DEFINED_HEIGHT_BEGIN
1070
    46
1040
0.0613298429
1000
ACAD_MTEXT_DEFINED_HEIGHT_END
  0
LINE
  5
651
330
1F
100
AcDbEntity
  8
FAB
370
     0
100
AcDbLine
 10
-0.0000000066829102
 20
0.7089999936355738
 30
0.0
 11
-0.0000000066829102
 21
-0.0000000063644272
 31
0.0
  0
LINE
  5
652
330
1F
100
AcDbEntity
  8
FAB
370
     0
100
AcDbLine
 10
-0.0000000066829102
 20
-0.0000000063644272
 30
0.0
 11
2.361999993317082
 21
-0.0000000063644272
 31
0.0
  0
LINE
  5
653
330
1F
100
AcDbEntity
  8
FAB
370
     0
100
AcDbLine
 10
2.361999993317082
 20
-0.0000000063644272
 30
0.0
 11
2.361999993317082
 21
0.7089999936355738
 31
0.0
  0
LINE
  5
654
330
1F
100
AcDbEntity
  8
FAB
370
     0
100
AcDbLine
 10
2.361999993317082
 20
0.7089999936355738
 30
0.0
 11
-0.0000000066829102
 21
0.7089999936355738
 31
0.0
  0
CIRCLE
  5
655
330
1F
100
AcDbEntity
  8
NON-PLATED
370
     0
100
AcDbCircle
 10
0.110000187716877
 20
0.5419999879352031
 30
0.0
 40
0.04
  0
CIRCLE
  5
656
330
1F
100
AcDbEntity
  8
NON-PLATED
370
     0
100
AcDbCircle
 10
0.110000187716877
 20
0.1669999993354896
 30
0.0
 40
0.04
  0
CIRCLE
  5
657
330
1F
100
AcDbEntity
  8
NON-PLATED
370
     0
100
AcDbCircle
 10
2.251999798917294
 20
0.5419999879352031
 30
0.0
 40
0.04
  0
CIRCLE
  5
658
330
1F
100
AcDbEntity
  8
NON-PLATED
370
     0
100
AcDbCircle
 10
2.251999798917294
 20
0.1669999993354896
 30
0.0
 40
0.04
  0
LWPOLYLINE
  5
659
330
1F
100
AcDbEntity
  8
L01
  6
Continuous
370
     0
100
AcDbPolyline
 90
        8
 70
     1
 43
0.0
 10
-0.0000000066828827
 20
0.3434999936356018
 10
-0.0000000066829102
 20
0.3434999936356018
 10
0.0199999933170716
 20
0.3419999936355258
 10
0.0299999933170634
 20
0.3219999936355458
 10
0.0299999933170634
 20
0.2894999813601831
 10
0.2059999850322347
 20
0.289499981360068
 10
0.2059999850322347
 20
0.1044999936354429
 10
-0.0000000066829378
 20
0.1044999936354429
  0
LWPOLYLINE
  5
65A
330
1F
100
AcDbEntity
  8
L01
  6
Continuous
370
     0
100
AcDbPolyline
 90
        8
 70
     1
 43
0.0
 10
-0.0000000066828827
 20
0.3654999936353138
 10
-0.0000000066829102
 20
0.3654999936353138
 10
0.0199999933170716
 20
0.3669999936353898
 10
0.0299999933170634
 20
0.3869999936353739
 10
0.0299999933170634
 20
0.419500005910737
 10
0.2059999850322347
 20
0.4195000059108467
 10
0.2059999850322347
 20
0.6044999936354798
 10
-0.0000000066829378
 20
0.6044999936354798
  0
LWPOLYLINE
  5
65B
330
1F
100
AcDbEntity
  8
L01
  6
Continuous
370
     0
100
AcDbPolyline
 90
        8
 70
     1
 43
0.0
 10
2.361999993317056
 20
0.3434999936356018
 10
2.361999993317084
 20
0.3434999936356018
 10
2.341999993317104
 20
0.3419999936355258
 10
2.331999993317111
 20
0.3219999936355458
 10
2.331999993317111
 20
0.2894999813601831
 10
2.156000001601939
 20
0.289499981360068
 10
2.156000001601939
 20
0.1044999936354429
 10
2.361999993317114
 20
0.1044999936354429
  0
LWPOLYLINE
  5
65C
330
1F
100
AcDbEntity
  8
L01
  6
Continuous
370
     0
100
AcDbPolyline
 90
        8
 70
     1
 43
0.0
 10
2.361999993317056
 20
0.3654999936353138
 10
2.361999993317084
 20
0.3654999936353138
 10
2.341999993317104
 20
0.3669999936353898
 10
2.331999993317111
 20
0.3869999936353739
 10
2.331999993317111
 20
0.419500005910737
 10
2.156000001601939
 20
0.4195000059108467
 10
2.156000001601939
 20
0.6044999936354798
 10
2.361999993317114
 20
0.6044999936354798
  0
LWPOLYLINE
  5
65D
330
1F
100
AcDbEntity
  8
SSB-WHITE
370
     0
100
AcDbPolyline
 90
        4
 70
     1
 43
0.0
 10
0.4934999200367063
 20
0.0149999921965938
 10
1.868499920036708
 20
0.0149999921965938
 10
1.868499920036708
 20
0.3149999921965958
 10
0.4934999200367063
 20
0.3149999921965958
  0
LWPOLYLINE
  5
65E
330
1F
100
AcDbEntity
  8
SSB-BLUE
370
     0
100
AcDbPolyline
 90
      107
 70
     1
 43
0.0
 10
0.314017678640166
 20
0.2044704409089437
 10
0.314017678640166
 20
0.2164513368146679
 10
0.31407764379236
 20
0.2217425594786628
 10
0.3167900301440483
 20
0.22307863115073
 10
0.3215847609683315
 20
0.2254404274707258
 10
0.3257547885441987
 20
0.2274945059907387
 10
0.3272681991441804
 20
0.2282360741426279
 10
0.3285418031123006
 20
0.2287615676306638
 10
0.3296729793923703
 20
0.2291019983187477
 10
0.3306295972883051
 20
0.2292694153348149
 10
0.3317461232961607
 20
0.2292322339826929
 10
0.3330731619442266
 20
0.2286772671027739
 10
0.3341572093761336
 20
0.2275074833188038
 10
0.3349641256161133
 20
0.225682719182732
 10
0.335354159624047
 20
0.2247979826547879
 10
0.336085926920294
 20
0.2247979826547879
 10
0.336969699056187
 20
0.2247979826547879
 10
0.3375114602242188
 20
0.2247979826547879
 10
0.3375357450563481
 20
0.2280103031427418
 10
0.3375357450563481
 20
0.238392522470634
 10
0.3375357450563481
 20
0.2497769856386336
 10
0.3375357450563481
 20
0.255649107062673
 10
0.3371957577201536
 20
0.255685678142723
 10
0.3363646025122016
 20
0.255685678142723
 10
0.3355334473042513
 20
0.255685678142723
 10
0.3351770522002697
 20
0.2555798302706989
 10
0.3348880581443057
 20
0.2542807518147265
 10
0.3344557100722962
 20
0.2531315154146441
 10
0.3338759912962983
 20
0.2521421624787026
 10
0.333153853568227
 20
0.251309539622631
 10
0.3321950791281116
 20
0.2504709734787678
 10
0.3308918217443146
 20
0.2496052193428015
 10
0.3292340406323255
 20
0.2487403924707148
 10
0.3260641845922043
 20
0.2472589359747648
 10
0.3072529080563617
 20
0.2380697828066776
 10
0.2804548845442127
 20
0.224979169478698
 10
0.2605026439760936
 20
0.2152326648146579
 10
0.2568097299202137
 20
0.2134438499427516
 10
0.2552815458082538
 20
0.2128286389827187
 10
0.2539387336881447
 20
0.2124343296387039
 10
0.2527863136403523
 20
0.2122589135667399
 10
0.2513799121762776
 20
0.2123672767826932
 10
0.2500313555123377
 20
0.2129746549827387
 10
0.2489404659200751
 20
0.2141298069026938
 10
0.2480951939602987
 20
0.2158688802387125
 10
0.2477136622643306
 20
0.2161905609746606
 10
0.2469524019203426
 20
0.2161905609746606
 10
0.2461554572002562
 20
0.2161905609746606
 10
0.2457867215601777
 20
0.2161905609746606
 10
0.2457867215601777
 20
0.2106228136467427
 10
0.2457867215601777
 20
0.1985892953187296
 10
0.2457867215601777
 20
0.1870945913187008
 10
0.2457969975921861
 20
0.1829796233186975
 10
0.2462618058321224
 20
0.1829796233186975
 10
0.2470834547120173
 20
0.1829796233186975
 10
0.2477980514000286
 20
0.1829796233186975
 10
0.2481887958321831
 20
0.183603686654652
 10
0.2489715164722988
 20
0.1852842372147219
 10
0.2499674151681841
 20
0.1864238109746608
 10
0.251206614272296
 20
0.187010358494732
 10
0.2524494219683389
 20
0.1870746744866709
 10
0.2535144845120403
 20
0.18690723781474
 10
0.2546655904163204
 20
0.1865581366466635
 10
0.2559087640881126
 20
0.1860193382306541
 10
0.2612454417202468
 20
0.1833245808146486
 10
0.2832520063521926
 20
0.172235033150633
 10
0.3098298417921521
 20
0.1588419311427032
 10
0.3261223183042601
 20
0.1506318264867028
 10
0.3285796084640324
 20
0.1493893498226728
 10
0.330431245784311
 20
0.1483079050946627
 10
0.3318585359602446
 20
0.1472982918146366
 10
0.3328835689041147
 20
0.1463705510787117
 10
0.3337919048002362
 20
0.1453816661427876
 10
0.334469827136262
 20
0.1442652680546468
 10
0.3349314823040617
 20
0.142994393150679
 10
0.3351962333360268
 20
0.1416563811507068
 10
0.3356415297201609
 20
0.1416563811507068
 10
0.3365048399603587
 20
0.1416563811507068
 10
0.3372921476241375
 20
0.1416563811507068
 10
0.3375357450563481
 20
0.1420129534706578
 10
0.3375357450563481
 20
0.1499675931508078
 10
0.3375357450563481
 20
0.1629439570706932
 10
0.3375357450563481
 20
0.1736884436546831
 10
0.3374701610961237
 20
0.1760479826547869
 10
0.3368436279682552
 20
0.1760479826547869
 10
0.3359510861360988
 20
0.1760479826547869
 10
0.3352865517203716
 20
0.1760479826547869
 10
0.3349455728483086
 20
0.1748717345426867
 10
0.3341892099682431
 20
0.1731528419907029
 10
0.3330497454082151
 20
0.1720425874946438
 10
0.3315291868882708
 20
0.1715449868067398
 10
0.330456111248111
 20
0.1715662508547817
 10
0.3295085201360566
 20
0.1718059748068077
 10
0.328369069304097
 20
0.1722211837827436
 10
0.3270658733842886
 20
0.1727877801507929
 10
0.3252623367921821
 20
0.1736749228227619
 10
0.3208200027923054
 20
0.17587631682271
 10
0.3161694343761701
 20
0.1781809013906566
 10
0.314017678640166
 20
0.1792472016386788
 10
0.314017678640166
 20
0.1792472016386788
 10
0.314017678640166
 20
0.1863665112387229
 10
0.314017678640166
 20
0.2044704409089437
 10
0.3014112334643677
 20
0.2044704409089437
 10
0.3014112334643677
 20
0.1852266938067397
 10
0.2688477569600387
 20
0.2003848968147945
 10
0.3014112334643677
 20
0.215638314734703
 10
0.3014112334643677
 20
0.2044704409089437
  0
LWPOLYLINE
  5
65F
330
1F
100
AcDbEntity
  8
SSB-BLUE
370
     0
100
AcDbPolyline
 90
      107
 70
     1
 43
0.0
 10
0.4207916043921856
 20
0.2059990388288737
 10
0.4285992215601793
 20
0.2059990388288737
 10
0.4285992215601793
 20
0.2137871663186788
 10
0.4286369445442136
 20
0.2171227729827918
 10
0.4303432528880498
 20
0.2179437326546676
 10
0.4333595225600125
 20
0.2193949569746749
 10
0.4359828042083507
 20
0.2206571018067791
 10
0.4369344382162828
 20
0.2211375256466908
 10
0.4377228865521961
 20
0.2215222079187518
 10
0.4384106162962951
 20
0.2217681703107788
 10
0.4389855780083059
 20
0.2218874619507236
 10
0.4396787353042493
 20
0.221860838054754
 10
0.4404997268000708
 20
0.2214797066547049
 10
0.4411625342963257
 20
0.2207116116386727
 10
0.4416751905442729
 20
0.2195665934786728
 10
0.4419229269681236
 20
0.2190279632306931
 10
0.4423274811443028
 20
0.2190279632306931
 10
0.4428160709602978
 20
0.2190279632306931
 10
0.4431155809760705
 20
0.2190279632306931
 10
0.4431290069602527
 20
0.2210559632307119
 10
0.4431290069602527
 20
0.2276104592306929
 10
0.4431290069602527
 20
0.2347976912307086
 10
0.4431290069602527
 20
0.2385048752307117
 10
0.4429410463041848
 20
0.2385279632307617
 10
0.4424815458080822
 20
0.2385279632307617
 10
0.4420220456241238
 20
0.2385279632307617
 10
0.4418201906720772
 20
0.2384629985907298
 10
0.4416046286241953
 20
0.237653808806745
 10
0.4413186250881758
 20
0.2369311257026929
 10
0.4409541476241845
 20
0.2363250725667516
 10
0.4405135874003375
 20
0.2358436234947199
 10
0.4399377879683187
 20
0.2353403091506916
 10
0.4391383063763153
 20
0.2348141323827848
 10
0.4381091182163317
 20
0.2342590684706876
 10
0.4361310204322671
 20
0.2332921371027847
 10
0.4244000781443438
 20
0.2274801505587778
 10
0.4076885026402186
 20
0.2192005553907639
 10
0.3952460415443681
 20
0.2130360531507498
 10
0.392920286216138
 20
0.2118998196627437
 10
0.3919335849680356
 20
0.211512846062762
 10
0.3910812783442345
 20
0.211272625094777
 10
0.3903754154721506
 20
0.2111691159748128
 10
0.3894864048563251
 20
0.2112353311108146
 10
0.3886041574641963
 20
0.2116094574867069
 10
0.3878831834962328
 20
0.212331465110807
 10
0.38732749964002
 20
0.2134334849907997
 10
0.3871012094720916
 20
0.213638803142759
 10
0.3866662034723101
 20
0.213638803142759
 10
0.3862108067121603
 20
0.213638803142759
 10
0.3860001006322173
 20
0.213638803142759
 10
0.3860001006322173
 20
0.2101334210546528
 10
0.3860001006322173
 20
0.202557272318737
 10
0.3860001006322173
 20
0.1953203543186799
 10
0.3860059724721934
 20
0.1927296233187321
 10
0.3862715771361378
 20
0.1927296233187321
 10
0.3867410909602578
 20
0.1927296233187321
 10
0.3871494318800437
 20
0.1927296233187321
 10
0.387382404464315
 20
0.1931255366547759
 10
0.3878853206963306
 20
0.194195904758768
 10
0.3885430226240984
 20
0.1949261154867688
 10
0.3893675590643113
 20
0.195304119710654
 10
0.390158119640235
 20
0.1953429428067226
 10
0.390793442120227
 20
0.1952153332467787
 10
0.3914945716402132
 20
0.1949663051427528
 10
0.3922695409521557
 20
0.194607907622772
 10
0.3956135151443076
 20
0.1929096594866832
 10
0.4093862097681411
 20
0.1859251482387787
 10
0.4260198105443403
 20
0.1774897933107491
 10
0.4362163727123516
 20
0.1723188369747071
 10
0.4377250693043156
 20
0.1715236781427416
 10
0.4388575547361571
 20
0.1708223208626829
 10
0.4397303653762723
 20
0.1701690056546368
 10
0.4403495250083678
 20
0.1695777903026641
 10
0.4408994986400261
 20
0.1689943088067327
 10
0.4413246856882856
 20
0.1682951139986488
 10
0.4416340149680753
 20
0.1674684762386649
 10
0.4418356181360182
 20
0.166583627390664
 10
0.4420817983042973
 20
0.166583627390664
 10
0.4425590756243203
 20
0.166583627390664
 10
0.4429943349681871
 20
0.166583627390664
 10
0.4431290069602527
 20
0.1668092982387579
 10
0.4431290069602527
 20
0.171843713390678
 10
0.4431290069602527
 20
0.180056329022789
 10
0.4431290069602527
 20
0.1868564111427355
 10
0.4430927491281143
 20
0.1883497404867227
 10
0.4427463729681636
 20
0.1883497404867227
 10
0.4422529352962901
 20
0.1883497404867227
 10
0.4418855503043311
 20
0.1883497404867227
 10
0.4416588723201738
 20
0.1875861457586638
 10
0.4411692569601016
 20
0.1864835296468028
 10
0.4404695532802903
 20
0.1857825526946568
 10
0.4395637779683313
 20
0.1854731738066499
 10
0.4389049450401111
 20
0.1854779764226526
 10
0.4383118498883328
 20
0.1855960419027918
 10
0.4376078409200801
 20
0.1858237859907788
 10
0.4368049666402723
 20
0.1861712494707568
 10
0.4356730125442008
 20
0.1867432634066537
 10
0.432878428544198
 20
0.1881603284066475
 10
0.4299528482240654
 20
0.1896438185187978
 10
0.4285992215601793
 20
0.190330209470722
 10
0.4285992215601793
 20
0.190330209470722
 10
0.4285992215601793
 20
0.1948188863907045
 10
0.4285992215601793
 20
0.2059990388288737
 10
0.4207916043921856
 20
0.2059990388288737
 10
0.4207916043921856
 20
0.1940626311507421
 10
0.4003584991283154
 20
0.2036983733186628
 10
0.4207916043921856
 20
0.2132960296467679
  0
LWPOLYLINE
  5
660
330
1F
100
AcDbEntity
  8
SSB-BLUE
370
     0
100
AcDbPolyline
 90
      206
 70
     1
 43
0.0
 10
0.3946836943041116
 20
0.3603458344706878
 10
0.3946836943041116
 20
0.3603458344706878
 10
0.3947413497201877
 20
0.3588350899107078
 10
0.394873460504165
 20
0.3573679173987339
 10
0.395080443488041
 20
0.3559453165826878
 10
0.3953627148802265
 20
0.3545682864867548
 10
0.3957206912002302
 20
0.3532378273827867
 10
0.3961547889682473
 20
0.3519549379826468
 10
0.3966654243923582
 20
0.3507206182467537
 10
0.3972530143041872
 20
0.3495358678226887
 10
0.3979179752243
 20
0.3484016860467638
 10
0.3986607230482688
 20
0.3473190725667328
 10
0.3994816749202252
 20
0.3462890267187419
 10
0.4004794343841507
 20
0.3451406239826378
 10
0.4015620213441072
 20
0.3440827677027398
 10
0.4027158335363535
 20
0.3431391630146647
 10
0.4039398722483281
 20
0.3423085603586897
 10
0.4052331372081702
 20
0.3415897104866787
 10
0.4065946290800913
 20
0.3409813638387278
 10
0.4080233485283023
 20
0.3404822711667088
 10
0.4095182959041708
 20
0.3400911832226807
 10
0.4110784715601206
 20
0.3398068498228017
 10
0.4127028764721477
 20
0.3396280223426977
 10
0.4143905103680483
 20
0.3395534512228138
 10
0.4153508838082774
 20
0.3395579565026998
 10
0.4160842653923372
 20
0.3395880208227497
 10
0.416809243568375
 20
0.3396422592146737
 10
0.4175268179843253
 20
0.3397212541828067
 10
0.4182379876641856
 20
0.3398255891666588
 10
0.4189437528801668
 20
0.3399558469826878
 10
0.4196451126562711
 20
0.3401126107588017
 10
0.4203430663282859
 20
0.340296463622717
 10
0.4210386141680607
 20
0.3405079887026887
 10
0.4217327548881773
 20
0.3407477688146527
 10
0.4224264887601273
 20
0.3410163870866878
 10
0.4231375885521614
 20
0.3413176159107638
 10
0.4238435974401904
 20
0.3416492403986857
 10
0.4245324843923211
 20
0.3420094163186578
 10
0.4252034173042008
 20
0.3423980603667518
 10
0.4258555625122061
 20
0.3428150889267028
 10
0.4264880876002009
 20
0.3432604190067288
 10
0.4271001592163417
 20
0.3437339669907478
 10
0.4276909446323583
 20
0.3442356501987538
 10
0.4282596108081905
 20
0.3447653847027068
 10
0.4288053250162723
 20
0.3453230875108066
 10
0.4293272542161946
 20
0.3459086753187788
 10
0.4300276798640335
 20
0.3467397069746538
 10
0.4308238071442521
 20
0.3477894815186437
 10
0.4315411382002905
 20
0.3488880665907468
 10
0.4321795900401755
 20
0.3500347121427048
 10
0.4327390790480124
 20
0.3512286684387491
 10
0.4332195219200452
 20
0.3524691863666738
 10
0.4336208359760807
 20
0.353755515878758
 10
0.4339429369762993
 20
0.3550869072386931
 10
0.4341857425522982
 20
0.3564626113348157
 10
0.4343491687760413
 20
0.3578818778067219
 10
0.4344331326562667
 20
0.3593439575427477
 10
0.4344344151801405
 20
0.3597842883284228
 10
0.4441167264835056
 20
0.3597842883284228
 10
0.4441160773040691
 20
0.3586060613187247
 10
0.4439038402400711
 20
0.3551249534546428
 10
0.443467190936361
 20
0.3518282213667647
 10
0.4428064619840413
 20
0.3487153649186307
 10
0.4419219872242053
 20
0.3457858852226958
 10
0.4408140995600816
 20
0.3430392815187537
 10
0.4394831325202722
 20
0.3404750549187301
 10
0.4379294186962293
 20
0.3380927052866958
 10
0.436153291304052
 20
0.3358917324867217
 10
0.4341550838723283
 20
0.3338716373187789
 10
0.4319351296160825
 20
0.3320319199587187
 10
0.4298994110480701
 20
0.330641749358779
 10
0.4285911610402913
 20
0.3298955776468038
 10
0.4272673253841904
 20
0.329217373574672
 10
0.4259273218881017
 20
0.3286081371027998
 10
0.4245705668000293
 20
0.3280688672546668
 10
0.4231964773040362
 20
0.3276005639906958
 10
0.4218044705841822
 20
0.3272042269588078
 10
0.4203939632002572
 20
0.3268808551826541
 10
0.4189643720241821
 20
0.3266314483106938
 10
0.4175151145521605
 20
0.3264570059906817
 10
0.4160456073443309
 20
0.3263585278707222
 10
0.4143599125281421
 20
0.3263389311506377
 10
0.4120267231762132
 20
0.3264512236947508
 10
0.4097672491282803
 20
0.3267189983188081
 10
0.4075827393203318
 20
0.3271422550227978
 10
0.4054744436240601
 20
0.3277209938067318
 10
0.4034436112883011
 20
0.3284552143586468
 10
0.4014914915601171
 20
0.3293449169906748
 10
0.3996193343122627
 20
0.3303901020147828
 10
0.3978283884800202
 20
0.3315907688066968
 10
0.3961199036243581
 20
0.3329469173667627
 10
0.3944951293041212
 20
0.3344585483187288
 10
0.3929595823041358
 20
0.3361127617106727
 10
0.3915683789843003
 20
0.3377896281747947
 10
0.3903072993203196
 20
0.3395692240707557
 10
0.3891768431361537
 20
0.3414523818146877
 10
0.3881775102561278
 20
0.3434399347587909
 10
0.3873098001920603
 20
0.3455327156308008
 10
0.3865742127682727
 20
0.3477315574707838
 10
0.385971247808019
 20
0.3500372933187927
 10
0.3855014051363277
 20
0.3524507559027468
 10
0.3851651845760981
 20
0.354972778574667
 10
0.3849630856402166
 20
0.3576041934387257
 10
0.3848956084640838
 20
0.3603458344706878
 10
0.3848956084640838
 20
0.3603458344706878
 10
0.3850569770483032
 20
0.3639497689347499
 10
0.385437529064343
 20
0.3673579998387617
 10
0.3860361818723037
 20
0.3705710266947317
 10
0.3868518522083519
 20
0.3735893496387588
 10
0.3878834574322427
 20
0.3764134678707069
 10
0.3891299145922851
 20
0.379043881214717
 10
0.3905901413603621
 20
0.3814810898067118
 10
0.392263054472294
 20
0.3837255934706558
 10
0.3941475712881841
 20
0.3857778914067738
 10
0.3962426088563413
 20
0.3876384837506288
 10
0.3985470845361663
 20
0.3893078703267187
 10
0.399979352048029
 20
0.3902172919827089
 10
0.4013054378480323
 20
0.3909686363426408
 10
0.4026506813840376
 20
0.3916397963906739
 10
0.4040159153843233
 20
0.3922314382466778
 10
0.4054019728882361
 20
0.3927442286548017
 10
0.4068096869361942
 20
0.3931788340467031
 10
0.4082398902561071
 20
0.3935359202306468
 10
0.4096934158880404
 20
0.3938161539507847
 10
0.4111710965602651
 20
0.394020201638769
 10
0.4126737656242661
 20
0.3941487291026897
 10
0.4142022558083225
 20
0.3942024033986557
 10
0.4153710168560423
 20
0.3941927750786829
 10
0.4164252960563477
 20
0.3941445043107108
 10
0.4174709868320408
 20
0.3940587327027658
 10
0.4185074227523407
 20
0.3939357098547007
 10
0.4195339373843643
 20
0.3937756863027597
 10
0.4205498642962713
 20
0.3935789116467978
 10
0.4215545373683645
 20
0.3933456354866478
 10
0.4225472901681027
 20
0.3930761083587537
 10
0.4235274562643623
 20
0.3927705792386829
 10
0.424494369224246
 20
0.3924292989746467
 10
0.4254473632401981
 20
0.392052516542754
 10
0.4264849669762852
 20
0.3915997199908028
 10
0.4275438984081302
 20
0.3910925427746967
 10
0.4285724738003501
 20
0.3905510758226378
 10
0.4295713595840703
 20
0.3899747369427917
 10
0.4305412218800475
 20
0.3893629423828058
 10
0.4314827271201187
 20
0.3887151093267418
 10
0.4323965420482523
 20
0.3880306546467009
 10
0.4332833324723655
 20
0.3873089955267468
 10
0.4341437651360672
 20
0.3865495485266628
 10
0.4349785061601211
 20
0.3857517308306928
 10
0.4357882219763623
 20
0.384914959310759
 10
0.4369123130483033
 20
0.3836150446947628
 10
0.438205182704138
 20
0.3818887084466858
 10
0.4393728707843501
 20
0.3800608458387837
 10
0.4404146275522898
 20
0.3781310409747718
 10
0.4413297035841417
 20
0.376098876710699
 10
0.4421173491443194
 20
0.3739639374627686
 10
0.4427768144961651
 20
0.3717258057747288
 10
0.4433073502162266
 20
0.3693840660627687
 10
0.4437082065682061
 20
0.3669383011827758
 10
0.4439786335040195
 20
0.3643880952388128
 10
0.4441178819123515
 20
0.3617330313987148
 10
0.4441167572717175
 20
0.3597842883284228
 10
0.4344344151801405
 20
0.3597842883284228
 10
0.4344375533841954
 20
0.3608617323987588
 10
0.4343624237841866
 20
0.362370730382692
 10
0.434207822480043
 20
0.3638280209186409
 10
0.4339738327762462
 20
0.3652336882467768
 10
0.4336605379761834
 20
0.3665878147348067
 10
0.4332680216961116
 20
0.3678904843107538
 10
0.4327963666162207
 20
0.3691417799667778
 10
0.4322456563520501
 20
0.3703417850068038
 10
0.4316159742080706
 20
0.3714905827347747
 10
0.4309074031762484
 20
0.3725882567667598
 10
0.4301200271842758
 20
0.3736348897827688
 10
0.429216796856287
 20
0.3747009722547188
 10
0.4281678815602908
 20
0.3758175681507558
 10
0.4270521464722333
 20
0.3768243640707798
 10
0.4258708402163105
 20
0.3777216102387357
 10
0.4246252129763608
 20
0.3785095559426828
 10
0.4233165133762303
 20
0.3791884514067401
 10
0.4219459909761803
 20
0.3797585465427118
 10
0.4205148956482656
 20
0.3802200912627578
 10
0.4190244766402529
 20
0.3805733351667237
 10
0.4174759828881243
 20
0.3808185284787218
 10
0.4158706642642916
 20
0.3809559207987889
 10
0.41421360855208
 20
0.3809857611026528
 10
0.412582275992035
 20
0.3809081501667428
 10
0.4110065655443567
 20
0.3807228773908018
 10
0.4094873096241188
 20
0.3804296922387538
 10
0.4080253415842261
 20
0.3800283457346718
 10
0.4066214941522386
 20
0.3795185873426528
 10
0.4052766000560846
 20
0.3789001671507197
 10
0.4039914929600937
 20
0.378172835870807
 10
0.4027670049682622
 20
0.3773363429666539
 10
0.4016039694320801
 20
0.3763904388387798
 10
0.4005032193923111
 20
0.3753348735746638
 10
0.3994816524561777
 20
0.3741943288707787
 10
0.398658666656237
 20
0.3731761867587138
 10
0.3979112931200914
 20
0.3721078834707727
 10
0.397240114976185
 20
0.3709900848146828
 10
0.396645715664361
 20
0.3698234575347827
 10
0.3961286776880737
 20
0.3686086677507547
 10
0.3956895844882462
 20
0.3673463818947957
 10
0.3953290188801013
 20
0.3660372663987328
 10
0.3950475639920716
 20
0.3646819876947598
 10
0.394845802952239
 20
0.3632812115907891
 10
0.3947243185761788
 20
0.3618356051427436
  0
LWPOLYLINE
  5
661
330
1F
100
AcDbEntity
  8
SSB-BLUE
370
     0
100
AcDbPolyline
 90
        2
 70
     1
 43
0.0
 10
0.4181827178002058
 20
0.0954581389827838
 10
0.4181827178002058
 20
0.0954581389827838
  0
LWPOLYLINE
  5
662
330
1F
100
AcDbEntity
  8
SSB-BLUE
370
     0
100
AcDbPolyline
 90
      100
 70
     1
 43
0.0
 10
0.4228080859761115
 20
0.0954581389827838
 10
0.4308416204720693
 20
0.0954581389827838
 10
0.4338360379763611
 20
0.0948773413107773
 10
0.4338360379763611
 20
0.0823431531507559
 10
0.4338360379763611
 20
0.0668272639826437
 10
0.4338183319763261
 20
0.0631994181506928
 10
0.4336453111283208
 20
0.0625664993186739
 10
0.4332791959760521
 20
0.0620236121426316
 10
0.4328277441442481
 20
0.0615925183106638
 10
0.432160866296333
 20
0.0612178147346678
 10
0.4312156011441575
 20
0.0609526889908017
 10
0.4310938506323581
 20
0.0606433107267117
 10
0.4310938506323581
 20
0.0600234556466637
 10
0.4311632462962827
 20
0.0597335296466977
 10
0.436322287976334
 20
0.0597335296466977
 10
0.4437913486400414
 20
0.0597335296466977
 10
0.4459473662963776
 20
0.0597812107346969
 10
0.4459473662963776
 20
0.0602974109907981
 10
0.4459473662963776
 20
0.0608509270706268
 10
0.445350331208334
 20
0.0610522169906567
 10
0.444457485800128
 20
0.0613752577347988
 10
0.4438483582162088
 20
0.061774706654802
 10
0.4434630709763017
 20
0.062252415470768
 10
0.4432151882240101
 20
0.0628379489907429
 10
0.4431290069602527
 20
0.06350403747867
 10
0.4431290069602527
 20
0.0768399533187418
 10
0.4431290069602527
 20
0.1000023338067839
 10
0.4431054703040882
 20
0.1086358733188018
 10
0.4425975296241447
 20
0.1086358733188018
 10
0.4419687569601223
 20
0.1086358733188018
 10
0.4416973412962673
 20
0.1082385706466638
 10
0.4413255006321082
 20
0.1075084797266719
 10
0.4408648129761508
 20
0.106992213638768
 10
0.4403345399600758
 20
0.1066556155588088
 10
0.4396796397921188
 20
0.1064384669906797
 10
0.4388529689603411
 20
0.1063516274067879
 10
0.4270784521281961
 20
0.1063507169907689
 10
0.4021268271442571
 20
0.1063507169907689
 10
0.3903603761362193
 20
0.1063516274067879
 10
0.3895292958081846
 20
0.1064384669906797
 10
0.3887989088000987
 20
0.1066556155588088
 10
0.3882276561443083
 20
0.106992213638768
 10
0.3877792098083583
 20
0.1075084797266719
 10
0.3874065794722528
 20
0.1082385706466638
 10
0.3871262256321426
 20
0.1086358733188018
 10
0.386515946144061
 20
0.1086358733188018
 10
0.3860229449600387
 20
0.1086358733188018
 10
0.3860001006322173
 20
0.1001771901507817
 10
0.3860001006322173
 20
0.0774839213186409
 10
0.3860001006322173
 20
0.0644180998227437
 10
0.3859355384721841
 20
0.0636635596466588
 10
0.3857205289762797
 20
0.0630807898227941
 10
0.3852995314641223
 20
0.0626651546547867
 10
0.3846561153920973
 20
0.0622244743107876
 10
0.383824936472255
 20
0.0618797483188036
 10
0.3832388700563474
 20
0.0616447539746288
 10
0.3832388700563474
 20
0.0611790974067548
 10
0.3832388700563474
 20
0.0607448336547889
 10
0.3854059440560267
 20
0.060704721062808
 10
0.3929133077122326
 20
0.060704721062808
 10
0.3980988060562867
 20
0.060704721062808
 10
0.3981685577121317
 20
0.0609486270628028
 10
0.3981685577121317
 20
0.0614700923187366
 10
0.3980528531363125
 20
0.0617461829906678
 10
0.397101237224259
 20
0.0620619516386727
 10
0.396359892464277
 20
0.0624547206387338
 10
0.3958863057921
 20
0.0628908598226978
 10
0.3955819887921557
 20
0.0633801759747081
 10
0.3954245651362775
 20
0.0640649548227259
 10
0.3954073271362617
 20
0.0676462639827076
 10
0.3954073271362617
 20
0.0827183138067032
 10
0.3954073271362617
 20
0.0948939553106541
 10
0.3980010318081115
 20
0.0954581389827838
 10
0.4049595191363329
 20
0.0954581389827838
 10
0.4089659208080843
 20
0.0954581389827838
 10
0.4089659208080843
 20
0.0894991792226989
 10
0.4089659208080843
 20
0.0791494066468079
 10
0.4089622647920157
 20
0.0751334924067089
 10
0.4088553193043563
 20
0.0744655284867828
 10
0.4086002958080988
 20
0.0738650882307188
 10
0.4081717566323171
 20
0.0733821524788017
 10
0.4075147173921403
 20
0.0730397630547959
 10
0.4066509613041847
 20
0.072795104822629
 10
0.4063189483762893
 20
0.0725602090707978
 10
0.4063189483762893
 20
0.071937787478789
 10
0.4063189483762893
 20
0.071507867390749
 10
0.4098164683763273
 20
0.0715020844707217
 10
0.4172940843921502
 20
0.0715020844707217
 10
0.4207916043921856
 20
0.071507867390749
 10
0.4207916043921856
 20
0.071937787478789
 10
0.4207916043921856
 20
0.0725602090707978
 10
0.4204635182960521
 20
0.072795104822629
 10
0.4195937730561577
 20
0.0730397630547959
 10
0.4189496989761379
 20
0.0733821524788017
 10
0.4185483428001957
 20
0.0738650882307188
 10
0.4182933193042917
 20
0.0744655284867828
 10
0.4181863741280623
 20
0.0751334924067089
 10
0.4181827178002058
 20
0.0791494066468079
 10
0.4181827178002058
 20
0.0894991792226989
 10
0.4181827178002058
 20
0.0954581389827838
  0
LWPOLYLINE
  5
663
330
1F
100
AcDbEntity
  8
SSB-BLUE
370
     0
100
AcDbPolyline
 90
        2
 70
     1
 43
0.0
 10
0.4265997099680581
 20
0.1424942718147948
 10
0.4265997099680581
 20
0.1424942718147948
  0
LWPOLYLINE
  5
664
330
1F
100
AcDbEntity
  8
SSB-BLUE
370
     0
100
AcDbPolyline
 90
      100
 70
     1
 43
0.0
 10
0.4213509916882483
 20
0.1400424897027968
 10
0.4098038114721741
 20
0.1346485688068117
 10
0.398256631256098
 20
0.1292546479106438
 10
0.3930079129762891
 20
0.1268028654866891
 10
0.3920045868080697
 20
0.1263440488947327
 10
0.3911369413283117
 20
0.1260030609747318
 10
0.3904049774720146
 20
0.1257906126867319
 10
0.3898086943041807
 20
0.1257174162386416
 10
0.388922601200143
 20
0.12590457318273
 10
0.3882043241602497
 20
0.1264577117426526
 10
0.3876502929682273
 20
0.1273643356946787
 10
0.3872569364721032
 20
0.1286119475667116
 10
0.3870605558721207
 20
0.1286119475667116
 10
0.3866285185521603
 20
0.1286119475667116
 10
0.3861964812321981
 20
0.1286119475667116
 10
0.3860001006322173
 20
0.1286119475667116
 10
0.3860001006322173
 20
0.1254609313347288
 10
0.3860001006322173
 20
0.1185286956867966
 10
0.3860001006322173
 20
0.1115964600386876
 10
0.3860001006322173
 20
0.1084454438067057
 10
0.3861964812321981
 20
0.1084454438067057
 10
0.3866285185521603
 20
0.1084454438067057
 10
0.3870605558721207
 20
0.1084454438067057
 10
0.3872569364721032
 20
0.1084454438067057
 10
0.3874455810323152
 20
0.1093324295426639
 10
0.3876806424561305
 20
0.1100712371187686
 10
0.3879799743202321
 20
0.1106922163347028
 10
0.3883614286402368
 20
0.1112257169906989
 10
0.3889937147361326
 20
0.1115803923506688
 10
0.3899777006481511
 20
0.1121207367266477
 10
0.3913151716401346
 20
0.1128324676946377
 10
0.3930079129762891
 20
0.1137013031427938
 10
0.3996908050880217
 20
0.1168731475587088
 10
0.4143931670483277
 20
0.1238512053987177
 10
0.4290955290082801
 20
0.1308292632387298
 10
0.4357784208082265
 20
0.1340011076546439
 10
0.4370147261120821
 20
0.134578942886769
 10
0.4380135894321118
 20
0.134996102798719
 10
0.4387803665602128
 20
0.1352490171747549
 10
0.4393204129761479
 20
0.1353341154866516
 10
0.4402541135361116
 20
0.135163323878662
 10
0.4409914334960901
 20
0.1346533293027288
 10
0.4415216612722901
 20
0.133807702598693
 10
0.4418340849680594
 20
0.1326300139826428
 10
0.4420364166561006
 20
0.1326300139826428
 10
0.4424815458080822
 20
0.1326300139826428
 10
0.4429266752722061
 20
0.1326300139826428
 10
0.4431290069602527
 20
0.1326300139826428
 10
0.4431290069602527
 20
0.1358018583987377
 10
0.4431290069602527
 20
0.142779916238748
 10
0.4431290069602527
 20
0.1497579740787538
 10
0.4431290069602527
 20
0.152929818806812
 10
0.4429266752722061
 20
0.152929818806812
 10
0.4424815458080822
 20
0.152929818806812
 10
0.4420364166561006
 20
0.152929818806812
 10
0.4418340849680594
 20
0.152929818806812
 10
0.4415204709921082
 20
0.1517339799027786
 10
0.4409819121921182
 20
0.1509041229267178
 10
0.4402219787843525
 20
0.1504206099746996
 10
0.4392442412961631
 20
0.150263803142793
 10
0.4387321638081243
 20
0.1503444382947121
 10
0.437989785704148
 20
0.1505803923506326
 10
0.4370081800403547
 20
0.1509627396147031
 10
0.4357784208082265
 20
0.1514825531426847
 10
0.4290955290082801
 20
0.154696053926644
 10
0.4143931670483277
 20
0.161765756150813
 10
0.3996908050880217
 20
0.1688354583748017
 10
0.3930079129762891
 20
0.1720489594707217
 10
0.3913151716401346
 20
0.1728669142706636
 10
0.3899777006481511
 20
0.1735509733347378
 10
0.3889937147361326
 20
0.1741029219267931
 10
0.3883614286402368
 20
0.1745245453106778
 10
0.3879799743202321
 20
0.1749717573747698
 10
0.3876806424561305
 20
0.1755314423187357
 10
0.3874455810323152
 20
0.1762303787906427
 10
0.3872569364721032
 20
0.177095346062667
 10
0.3870605558721207
 20
0.177095346062667
 10
0.3866285185521603
 20
0.177095346062667
 10
0.3861964812321981
 20
0.177095346062667
 10
0.3860001006322173
 20
0.177095346062667
 10
0.3860001006322173
 20
0.1738312622787497
 10
0.3860001006322173
 20
0.166650277766677
 10
0.3860001006322173
 20
0.1594692932547792
 10
0.3860001006322173
 20
0.1562052094706869
 10
0.3861964812321981
 20
0.1562052094706869
 10
0.3866285185521603
 20
0.1562052094706869
 10
0.3870605558721207
 20
0.1562052094706869
 10
0.3872569364721032
 20
0.1562052094706869
 10
0.3876502929682273
 20
0.157440026846813
 10
0.3882043241602497
 20
0.1582999359746617
 10
0.388922601200143
 20
0.1588027891827037
 10
0.3898086943041807
 20
0.1589664397347725
 10
0.3904049774720146
 20
0.1589197249107688
 10
0.3911369413283117
 20
0.1587641083586928
 10
0.3920045868080697
 20
0.1584763810226337
 10
0.3930079129762891
 20
0.1580333344707938
 10
0.398256631256098
 20
0.1556053557748029
 10
0.4098038114721741
 20
0.150263803142793
 10
0.4213509916882483
 20
0.1449222501986469
 10
0.4265997099680581
 20
0.1424942718147948
  0
LWPOLYLINE
  5
665
330
1F
100
AcDbEntity
  8
SSB-BLUE
370
     0
100
AcDbPolyline
 90
        2
 70
     1
 43
0.0
 10
0.4028721708080836
 20
0.2804986662387829
 10
0.4028721708080836
 20
0.2804986662387829
  0
LWPOLYLINE
  5
666
330
1F
100
AcDbEntity
  8
SSB-BLUE
370
     0
100
AcDbPolyline
 90
      100
 70
     1
 43
0.0
 10
0.4159529935762088
 20
0.2856149558067438
 10
0.4341683448082661
 20
0.2927395085666777
 10
0.437225668688078
 20
0.2940043986866927
 10
0.4385853119600416
 20
0.2944574916386999
 10
0.4396241390481013
 20
0.2944664291906749
 10
0.4409373183441021
 20
0.2935302741266685
 10
0.4418344709121618
 20
0.2915435882306539
 10
0.4423655623041665
 20
0.2915435882306539
 10
0.4430690443041004
 20
0.2915435882306539
 10
0.4431290069602527
 20
0.2954635453107368
 10
0.4431290069602527
 20
0.3064369930947488
 10
0.4430401649601823
 20
0.309691537478634
 10
0.4423086194962167
 20
0.309691537478634
 10
0.4418083527681276
 20
0.3095829015746876
 10
0.4409538428002913
 20
0.3077626654946868
 10
0.4394739949761411
 20
0.3069522651507359
 10
0.4383377330962955
 20
0.307036968782727
 10
0.4366785585923579
 20
0.3076230745107167
 10
0.4319718925760557
 20
0.3094446531267789
 10
0.4079360771361547
 20
0.3186456938066797
 10
0.3929307563121522
 20
0.3243867006627399
 10
0.3906492856402277
 20
0.3253605437666858
 10
0.3891127268242282
 20
0.3262435440147278
 10
0.388166613968222
 20
0.3271632644787328
 10
0.387522348008102
 20
0.3284042298147498
 10
0.3871494318800437
 20
0.3292677094706518
 10
0.3864244864643647
 20
0.3292677094706518
 10
0.3860001006322173
 20
0.3291762494786368
 10
0.3860001006322173
 20
0.3203594938946668
 10
0.3860001006322173
 20
0.3102396703107848
 10
0.38632037518403
 20
0.309691537478634
 10
0.3870745041443113
 20
0.309691537478634
 10
0.3875485728563577
 20
0.3105739174707778
 10
0.3885799131923484
 20
0.311924650022803
 10
0.3899809950562822
 20
0.3123177531746628
 10
0.3909693246320502
 20
0.3121615169907881
 10
0.3922728581361197
 20
0.3117517658306639
 10
0.4006991566402283
 20
0.3086309031506369
 10
0.4187659428320876
 20
0.3019411863506867
 10
0.4196644129761174
 20
0.299179056902779
 10
0.4018136028562971
 20
0.2920856498547719
 10
0.3921613019122008
 20
0.2882357336547816
 10
0.3908023593920617
 20
0.2876977171108059
 10
0.3899840383042363
 20
0.2875106079026377
 10
0.3886362710001032
 20
0.2878432133186837
 10
0.3875954879842966
 20
0.2891838626546832
 10
0.3871139362640754
 20
0.2902677094706867
 10
0.3863714804723512
 20
0.2902677094706867
 10
0.3860001006322173
 20
0.2899800255027367
 10
0.3860001006322173
 20
0.2800035490706829
 10
0.3860001006322173
 20
0.2700270729507688
 10
0.3863714804723512
 20
0.2697393889826429
 10
0.3871139362640754
 20
0.2697393889826429
 10
0.3876748058722112
 20
0.2708179486467319
 10
0.3888655105041234
 20
0.2721730136306579
 10
0.3902777351361957
 20
0.2725146021506966
 10
0.3910854660082146
 20
0.2723267896946586
 10
0.3923765663121736
 20
0.2719078557507037
 10
0.4019451149123681
 20
0.268263696686744
 10
0.4196842178002323
 20
0.2614942404867637
 10
0.4188375870802786
 20
0.2587844271987527
 10
0.4010893591281537
 20
0.252071956238769
 10
0.3927257021120276
 20
0.2489118530067591
 10
0.3910997162961207
 20
0.2484093214706498
 10
0.3899173820000712
 20
0.2482228384467029
 10
0.3885283795282337
 20
0.2486518936707398
 10
0.3875413684641433
 20
0.2501901531988055
 10
0.3870745041443113
 20
0.2512296233187676
 10
0.38632037518403
 20
0.2512296233187676
 10
0.3860001006322173
 20
0.2506852229427681
 10
0.3860001006322173
 20
0.2406343086147666
 10
0.3860001006322173
 20
0.2318775893186689
 10
0.3864244864643647
 20
0.231786752390736
 10
0.3871494318800437
 20
0.231786752390736
 10
0.3875919739281475
 20
0.2327005170867276
 10
0.3882581079682667
 20
0.2339329245747659
 10
0.3890891249601909
 20
0.2347416588387787
 10
0.3905771961682047
 20
0.2355923433746727
 10
0.3929208815122971
 20
0.2365740108147687
 10
0.4079360771361547
 20
0.2423805844707028
 10
0.4319718925760557
 20
0.2516903842946627
 10
0.4366790777600427
 20
0.2534862378867899
 10
0.4384639764081087
 20
0.254027905766713
 10
0.43971637997626
 20
0.254098807142813
 10
0.4410508904001276
 20
0.253213165190759
 10
0.4418128789520753
 20
0.251198324102762
 10
0.4423086194962167
 20
0.2510772796466609
 10
0.4430401649601823
 20
0.2510772796466609
 10
0.4431290069602527
 20
0.2543898797427166
 10
0.4431290069602527
 20
0.2655590766387927
 10
0.4430690443041004
 20
0.2695489594707219
 10
0.4423655623041665
 20
0.2695489594707219
 10
0.4418344709121618
 20
0.2695489594707219
 10
0.4410942209601663
 20
0.267637278998718
 10
0.4396749644722578
 20
0.2667545988628017
 10
0.4384331948001626
 20
0.2667862724787517
 10
0.4367940182482828
 20
0.2673366445347396
 10
0.4334832904642525
 20
0.2686904902227218
 10
0.4156666621283201
 20
0.2755632177987688
 10
0.4028721708080836
 20
0.2804986662387829
  0
LWPOLYLINE
  5
667
330
1F
100
AcDbEntity
  8
SSB-BLUE
370
     0
100
AcDbPolyline
 90
        2
 70
     1
 43
0.0
 10
0.4103370147920478
 20
0.4435636076547498
 10
0.4103370147920478
 20
0.4435636076547498
  0
LWPOLYLINE
  5
668
330
1F
100
AcDbEntity
  8
SSB-BLUE
370
     0
100
AcDbPolyline
 90
        2
 70
     1
 43
0.0
 10
0.4199727569603216
 20
0.4435636076547498
 10
0.4199727569603216
 20
0.4435636076547498
  0
LWPOLYLINE
  5
669
330
1F
100
AcDbEntity
  8
SSB-BLUE
370
     0
100
AcDbPolyline
 90
        2
 70
     1
 43
0.0
 10
0.4230958036403081
 20
0.4727374359746968
 10
0.4230958036403081
 20
0.4727374359746968
  0
LWPOLYLINE
  5
66A
330
1F
100
AcDbEntity
  8
SSB-BLUE
370
     0
100
AcDbPolyline
 90
      100
 70
     1
 43
0.0
 10
0.4258833043043051
 20
0.4708994277507191
 10
0.4313411836401509
 20
0.4673006384786538
 10
0.4351125079761085
 20
0.4648139214147258
 10
0.4353966329603427
 20
0.4648533298227778
 10
0.4357320466880985
 20
0.465303275006697
 10
0.4360224416241448
 20
0.4656928294708039
 10
0.4357063107442807
 20
0.4661448223107758
 10
0.4352498772083804
 20
0.4668040355667338
 10
0.4350205135281771
 20
0.4673758467026468
 10
0.4349971069763426
 20
0.4678794412227978
 10
0.4353003609922493
 20
0.468797320886762
 10
0.4360045016241001
 20
0.4702645386387859
 10
0.4372689605603118
 20
0.4724637486387789
 10
0.4395772975522326
 20
0.4768240803027238
 10
0.441344311736092
 20
0.4806762494547959
 10
0.4425870227120941
 20
0.4840474871427199
 10
0.4433990644882098
 20
0.4873009111347848
 10
0.4439393392881437
 20
0.4909038409586528
 10
0.4441952276480503
 20
0.4949033745747818
 10
0.4439481592163706
 20
0.5017488654867428
 10
0.4424936089760641
 20
0.5091969042146518
 10
0.4397935772003257
 20
0.5157131649267668
 10
0.4366587830961431
 20
0.520365706742783
 10
0.4340009131282461
 20
0.523162436054764
 10
0.4309662033201401
 20
0.5255766159267928
 10
0.4274642498001633
 20
0.5276157237506838
 10
0.4233001814240627
 20
0.5292900299427808
 10
0.4188546915442171
 20
0.5303210077347758
 10
0.4141311834561821
 20
0.530684829998783
 10
0.4078348066162816
 20
0.5301247553666478
 10
0.4020501996323383
 20
0.5283681042627948
 10
0.3968207504723482
 20
0.5254146139827088
 10
0.3907610162722896
 20
0.5196972401907139
 10
0.3862493574323809
 20
0.511667385110751
 10
0.3840022504402629
 20
0.5018260205907188
 10
0.3837771602241977
 20
0.494224963646817
 10
0.384094786832061
 20
0.4902802771347031
 10
0.3846953721680153
 20
0.4867683190226888
 10
0.3855481555281672
 20
0.483625606046759
 10
0.3868584051442907
 20
0.4801635844706938
 10
0.3887308397602629
 20
0.4762052585666688
 10
0.3910518261682041
 20
0.4718764679186598
 10
0.3921182880323606
 20
0.4699931332707168
 10
0.3928006635441843
 20
0.4686106044867318
 10
0.3930785291843577
 20
0.4677867472707118
 10
0.3930014658081546
 20
0.4672898130146388
 10
0.3927004254322472
 20
0.4667034442707028
 10
0.3922016319681178
 20
0.4660307716466328
 10
0.3920271912080881
 20
0.465649604678748
 10
0.3923128446803332
 20
0.4652249848467678
 10
0.3925984981522266
 20
0.4648003647026529
 10
0.3931495197923667
 20
0.4650206909906922
 10
0.3974875628002508
 20
0.467881088270798
 10
0.4028094297922334
 20
0.47139019439068
 10
0.4048465648401632
 20
0.4727457195747058
 10
0.4046050531282433
 20
0.4730750539827238
 10
0.4042282653921188
 20
0.4735888552707968
 10
0.4040157409761776
 20
0.4738786611507968
 10
0.403677507704165
 20
0.4738555594226828
 10
0.4033209756323588
 20
0.4738443654866998
 10
0.4029951880403218
 20
0.473841955910749
 10
0.4023836025200751
 20
0.4738877908946538
 10
0.4016555776643323
 20
0.474121368758734
 10
0.4009624699760713
 20
0.4745771854706638
 10
0.4002720224002037
 20
0.47525200746274
 10
0.3995225859203106
 20
0.4762613536707892
 10
0.3987268130720327
 20
0.4776005444067786
 10
0.3974149192162706
 20
0.4799754799827638
 10
0.3953605901603501
 20
0.4847956572146668
 10
0.3941753424081886
 20
0.4897628591428158
 10
0.3938081976561696
 20
0.4949125901187981
 10
0.3943022378001988
 20
0.5007126454707418
 10
0.395736180752082
 20
0.50573837859868
 10
0.398127046112366
 20
0.5099523476307568
 10
0.4018605133042908
 20
0.5137824721107758
 10
0.4064112978800863
 20
0.5163572271506621
 10
0.4116511984162852
 20
0.5175651697827748
 10
0.4173649580003343
 20
0.5174603898866979
 10
0.4224766252880503
 20
0.5160359073987278
 10
0.4268625028883708
 20
0.5132352796466498
 10
0.4303524656242353
 20
0.509329133246657
 10
0.4326275290640283
 20
0.50498170215874
 10
0.4339589563042959
 20
0.499828545734768
 10
0.4343238633922822
 20
0.4940447496387979
 10
0.4337851719922759
 20
0.4889516120307378
 10
0.4324333982961602
 20
0.484008353918703
 10
0.4303264083202701
 20
0.4792115716946488
 10
0.4292088318082455
 20
0.4773659048066868
 10
0.4283859633202703
 20
0.4760739287186598
 10
0.4276381991600715
 20
0.4751260714706898
 10
0.4269418625840516
 20
0.4744875057507679
 10
0.4262438714720771
 20
0.4740693761427158
 10
0.4254887837362871
 20
0.4738690930467869
 10
0.4249216304482771
 20
0.4738420326627888
 10
0.4246285295360473
 20
0.4738453985187308
 10
0.4242816254720756
 20
0.4738586469748048
 10
0.4239595045042091
 20
0.473864001830644
 10
0.4236884404641108
 20
0.4735104403107738
 10
0.4232961553762183
 20
0.4729987640547138
 10
0.4230958036403081
 20
0.4727374359746968
  0
LWPOLYLINE
  5
66B
330
1F
100
AcDbEntity
  8
SSB-BLUE
370
     0
100
AcDbPolyline
 90
        2
 70
     1
 43
0.0
 10
0.4387491241282433
 20
0.5523751311506678
 10
0.4387491241282433
 20
0.5523751311506678
  0
LWPOLYLINE
  5
66C
330
1F
100
AcDbEntity
  8
SSB-BLUE
370
     0
100
AcDbPolyline
 90
      100
 70
     1
 43
0.0
 10
0.4354306141281521
 20
0.5523751311506678
 10
0.4270600441281385
 20
0.5523751311506678
 10
0.4160148541282238
 20
0.5523751311506678
 10
0.4046724841280822
 20
0.5523751311506678
 10
0.3954103741281027
 20
0.5523751311506678
 10
0.3906059641283077
 20
0.5523751311506678
 10
0.3901077391281236
 20
0.5523841476387688
 10
0.3897532778003372
 20
0.5524239809906888
 10
0.3894128564723322
 20
0.5524951706547938
 10
0.3890911551442873
 20
0.5525972483187478
 10
0.3887928541281402
 20
0.5527297459827128
 10
0.3885226328001403
 20
0.5528921956466784
 10
0.3882835531280371
 20
0.5530792979908128
 10
0.388067775800307
 20
0.5533150386386479
 10
0.3878711864721902
 20
0.553608810974803
 10
0.3876909771443007
 20
0.5539564033107279
 10
0.3875243401283193
 20
0.5543536036466428
 10
0.3873684668002237
 20
0.5547961999827371
 10
0.3872510646321245
 20
0.5551554046468033
 10
0.3871262256321426
 20
0.5551554046468033
 10
0.386885556632321
 20
0.5551554046468033
 10
0.3865908336323622
 20
0.5551554046468033
 10
0.3863038326323203
 20
0.5551554046468033
 10
0.3860863296322527
 20
0.5551554046468033
 10
0.3860001006322173
 20
0.5551554046468033
 10
0.3860001006322173
 20
0.5539286009907039
 10
0.3860001006322173
 20
0.5508341266466568
 10
0.3860001006322173
 20
0.546750884990789
 10
0.3860001006322173
 20
0.5425577806467188
 10
0.3860001006322173
 20
0.5391337169907598
 10
0.3860001006322173
 20
0.5373575986466981
 10
0.3860500521442551
 20
0.5372740569026889
 10
0.3862405281442527
 20
0.5372740569026889
 10
0.386515946144061
 20
0.5372740569026889
 10
0.3868145301443366
 20
0.5372740569026889
 10
0.3870745041443113
 20
0.5372740569026889
 10
0.38723409214428
 20
0.5372740569026889
 10
0.3873301784722107
 20
0.5375153109027138
 10
0.3874794704721696
 20
0.5379635085747028
 10
0.3876371864720722
 20
0.5383636195587278
 10
0.3878089424721187
 20
0.5387128352307631
 10
0.3880003544721511
 20
0.5390083479026738
 10
0.3882170384723666
 20
0.5392473495747128
 10
0.3884600134640621
 20
0.5394366496466918
 10
0.3887224834642433
 20
0.5396041546466508
 10
0.389014203464038
 20
0.5397307096467508
 10
0.3893304934643487
 20
0.5398209946468118
 10
0.3896666734642977
 20
0.5398796896466421
 10
0.3900180634640771
 20
0.5399114746467589
 10
0.3903799834642267
 20
0.5399210296468029
 10
0.3936984934643171
 20
0.5399210296468029
 10
0.4020690634643316
 20
0.5399210296468029
 10
0.4131142534642463
 20
0.5399210296468029
 10
0.4244566234640282
 20
0.5399210296468029
 10
0.4337187334643638
 20
0.5399210296468029
 10
0.4385231434641624
 20
0.5399210296468029
 10
0.4390532876241107
 20
0.5399157646467941
 10
0.4394264199680836
 20
0.53988997597479
 10
0.439766792624102
 20
0.5398384469907978
 10
0.4400790849680556
 20
0.5397564983187558
 10
0.4403679776240264
 20
0.5396394496467148
 10
0.4406381499682617
 20
0.5394826209746868
 10
0.4408829286321803
 20
0.5392965956547929
 10
0.4410933629603724
 20
0.5390635026387698
 10
0.4412801629762973
 20
0.538769920310771
 10
0.4414470733040164
 20
0.5384242729827018
 10
0.4415978376322221
 20
0.5380349846546868
 10
0.4417361999603511
 20
0.5376104796386288
 10
0.4418401349600654
 20
0.5372740569026889
 10
0.4419687569601223
 20
0.5372740569026889
 10
0.4422167189601423
 20
0.5372740569026889
 10
0.4425203729603613
 20
0.5372740569026889
 10
0.4428160709602978
 20
0.5372740569026889
 10
0.4430401649601823
 20
0.5372740569026889
 10
0.4431290069602527
 20
0.5372740569026889
 10
0.4431290069602527
 20
0.538500860558794
 10
0.4431290069602527
 20
0.5415953349026639
 10
0.4431290069602527
 20
0.545678576558708
 10
0.4431290069602527
 20
0.549871680902776
 10
0.4431290069602527
 20
0.5532957445587372
 10
0.4431290069602527
 20
0.5550718629027958
 10
0.4430775416243291
 20
0.5551554046468033
 10
0.4428812936243683
 20
0.5551554046468033
 10
0.4425975296241447
 20
0.5551554046468033
 10
0.4422898976241401
 20
0.5551554046468033
 10
0.4420220456241238
 20
0.5551554046468033
 10
0.4418576216242221
 20
0.5551554046468033
 10
0.4417679069602301
 20
0.5549134486467558
 10
0.4416223879761665
 20
0.5544601613187848
 10
0.4414593193043315
 20
0.5540512169907839
 10
0.4412787006322266
 20
0.5536908279746898
 10
0.4410805319602158
 20
0.5533832056467248
 10
0.4408648129761508
 20
0.5531325623186479
 10
0.4406359244723151
 20
0.5529374331506918
 10
0.4403980928001401
 20
0.5527675688067535
 10
0.4401333511280781
 20
0.5526275391506688
 10
0.4398388911442455
 20
0.5525178128067339
 10
0.4395119054721084
 20
0.552438857150678
 10
0.4391495858001413
 20
0.5523911408068032
 10
0.4387491241282433
 20
0.5523751311506678
  0
LWPOLYLINE
  5
66D
330
1F
100
AcDbEntity
  8
SSB-BLUE
370
     0
100
AcDbPolyline
 90
        2
 70
     1
 43
0.0
 10
0.4431290069602527
 20
0.6048575531426508
 10
0.4431290069602527
 20
0.6048575531426508
  0
LWPOLYLINE
  5
66E
330
1F
100
AcDbEntity
  8
SSB-BLUE
370
     0
100
AcDbPolyline
 90
      100
 70
     1
 43
0.0
 10
0.4314811814722886
 20
0.611272297478763
 10
0.4112507479760517
 20
0.6224136954867388
 10
0.4043469314721185
 20
0.6265665374786318
 10
0.4180912141281255
 20
0.6265665374786318
 10
0.4351050614721848
 20
0.6265665374786318
 10
0.4391495858001413
 20
0.6265491434786688
 10
0.4399154459601507
 20
0.6263865206547639
 10
0.4405201968081736
 20
0.626061604478803
 10
0.4410282476240886
 20
0.6256096041506983
 10
0.4414593193043315
 20
0.6249346311507678
 10
0.4418015443041963
 20
0.623954617310742
 10
0.4421470209680125
 20
0.6238243498226708
 10
0.4428160709602978
 20
0.6238243498226708
 10
0.4431290069602527
 20
0.6239049556466898
 10
0.4431290069602527
 20
0.629897381150784
 10
0.4431290069602527
 20
0.6385729823186784
 10
0.4430775416243291
 20
0.6410772796466589
 10
0.4425203729603613
 20
0.6410772796466589
 10
0.4419229269681236
 20
0.6410772796466589
 10
0.4416604129762681
 20
0.6404712561507578
 10
0.4412787006322266
 20
0.6396020048066698
 10
0.4408081412960279
 20
0.6390040324707527
 10
0.4402692611362458
 20
0.6386073778227828
 10
0.4395968549600511
 20
0.638372822150727
 10
0.4387491241282433
 20
0.6382970061507059
 10
0.4244566234640282
 20
0.6382970061507059
 10
0.3996328064720256
 20
0.6382970061507059
 10
0.3901979997923721
 20
0.6383006818228148
 10
0.3894128564723322
 20
0.6384108521427421
 10
0.3887224834642433
 20
0.638682131150731
 10
0.3881730904642611
 20
0.6391142901506468
 10
0.3877346474721506
 20
0.6397711646547171
 10
0.3873684668002237
 20
0.6407028724707238
 10
0.3870745041443113
 20
0.6410772796466589
 10
0.3864425069603374
 20
0.6410772796466589
 10
0.3860059724721934
 20
0.6410772796466589
 10
0.3860001006322173
 20
0.6355870936467843
 10
0.3860001006322173
 20
0.6238492040548019
 10
0.3860059724721934
 20
0.6183590180547518
 10
0.3864425069603374
 20
0.6183590180547518
 10
0.3870745041443113
 20
0.6183590180547518
 10
0.3874108279762991
 20
0.6188404362387172
 10
0.3880896841280981
 20
0.61989968840679
 10
0.3891357736402527
 20
0.6204021669027538
 10
0.3900379715603011
 20
0.6204252561506478
 10
0.3906515086401301
 20
0.6202475952386517
 10
0.3913923928882266
 20
0.6199437718227419
 10
0.3972406697120627
 20
0.6167815666466861
 10
0.4124281545442133
 20
0.6085134764786658
 10
0.4211724640403105
 20
0.6037530609746958
 10
0.4125969633920708
 20
0.5988969868946699
 10
0.3977026733843623
 20
0.5904627529827349
 10
0.3918316720403601
 20
0.5871606825747318
 10
0.3906202939760801
 20
0.5866053238227398
 10
0.3897305420481443
 20
0.5863147288947168
 10
0.3887921009600887
 20
0.5863333331426879
 10
0.3878490734722977
 20
0.5868957009746918
 10
0.3873348806242847
 20
0.5879793038066868
 10
0.3870745041443113
 20
0.5884425139827499
 10
0.3864425069603374
 20
0.5884425139827499
 10
0.3860059724721934
 20
0.5884425139827499
 10
0.3860001006322173
 20
0.5830949899827172
 10
0.3860001006322173
 20
0.5716621084706448
 10
0.3860059724721934
 20
0.5663145844707938
 10
0.3864425069603374
 20
0.5663145844707938
 10
0.3870745041443113
 20
0.5663145844707938
 10
0.3873684668002237
 20
0.566657116478639
 10
0.3877346474721506
 20
0.5675188654706478
 10
0.3881730904642611
 20
0.5681359889906728
 10
0.3887224834642433
 20
0.568607205398807
 10
0.3894128564723322
 20
0.568899511646646
 10
0.3901979997923721
 20
0.5689969470627099
 10
0.3996328064720256
 20
0.5689996430547173
 10
0.4244566234640282
 20
0.5689996430547173
 10
0.4387491241282433
 20
0.5689996430547173
 10
0.4395968549600511
 20
0.5689353769827821
 10
0.4402692611362458
 20
0.5686928250626498
 10
0.4408081412960279
 20
0.5682404434707489
 10
0.4412787006322266
 20
0.5676769568067308
 10
0.4416604129762681
 20
0.5668700296466898
 10
0.4419229269681236
 20
0.5663145844707938
 10
0.4425203729603613
 20
0.5663145844707938
 10
0.4430775416243291
 20
0.5663145844707938
 10
0.4431290069602527
 20
0.5689681444706518
 10
0.4431290069602527
 20
0.5781608344707228
 10
0.4431290069602527
 20
0.5845104244707869
 10
0.4428160709602978
 20
0.5845958344707918
 10
0.4421470209680125
 20
0.5845958344707918
 10
0.4418019002961211
 20
0.5844719726546908
 10
0.4414861319602528
 20
0.5835157169907919
 10
0.4410933629603724
 20
0.5828260019906888
 10
0.4405721058082959
 20
0.5823600936387173
 10
0.439926156296103
 20
0.5820515646387965
 10
0.439149897800033
 20
0.5819065136547508
 10
0.4351050614721848
 20
0.5818917326546438
 10
0.4180912141281255
 20
0.5818917326546438
 10
0.4043469314721185
 20
0.5818917326546438
 10
0.4112507479760517
 20
0.5862850024707118
 10
0.4314811814722886
 20
0.5980714286547948
 10
0.4431290069602527
 20
0.6048575531426508
  0
LWPOLYLINE
  5
66F
330
1F
100
AcDbEntity
  8
SSB-BLUE
370
     0
100
AcDbPolyline
 90
        2
 70
     1
 43
0.0
 10
0.3223013700563451
 20
0.1158341154867588
 10
0.3223013700563451
 20
0.1158341154867588
  0
LWPOLYLINE
  5
670
330
1F
100
AcDbEntity
  8
SSB-BLUE
370
     0
100
AcDbPolyline
 90
      100
 70
     1
 43
0.0
 10
0.3223013700563451
 20
0.110270104670664
 10
0.3223013700563451
 20
0.0972011488227827
 10
0.3223013700563451
 20
0.0820618636227488
 10
0.3223013700563451
 20
0.0702868638146779
 10
0.322298670944372
 20
0.0667565335827582
 10
0.322230001928073
 20
0.0660617279907916
 10
0.3220734568642722
 20
0.0654350466627127
 10
0.3218353846403703
 20
0.0648786058947417
 10
0.3215221341441232
 20
0.0643945216707698
 10
0.3211211629762216
 20
0.063995288966682
 10
0.3205875671601737
 20
0.0636419739266878
 10
0.3199292109683016
 20
0.0633147096387679
 10
0.3191503276162493
 20
0.0630209023586987
 10
0.31825514938431
 20
0.0627679599027817
 10
0.3179786162963767
 20
0.0625873899026619
 10
0.3179786162963767
 20
0.0621359090547387
 10
0.3179786162963767
 20
0.0615419315666417
 10
0.3179786162963767
 20
0.0610192023988079
 10
0.3179786162963767
 20
0.060781466198649
 10
0.3204502412963652
 20
0.060780893054754
 10
0.3266877197123517
 20
0.060780893054754
 10
0.3340571072963208
 20
0.060780893054754
 10
0.3399172825520322
 20
0.060780893054754
 10
0.3417442412961629
 20
0.0607898786547878
 10
0.3417442412961629
 20
0.0610814148867167
 10
0.3417442412961629
 20
0.0616274086466477
 10
0.3417442412961629
 20
0.0622141159107299
 10
0.3417442412961629
 20
0.0626277914067419
 10
0.3412881132080816
 20
0.0628013117667528
 10
0.3403494961522551
 20
0.0630605457026428
 10
0.3395731272080766
 20
0.0633595858466336
 10
0.3389420766322351
 20
0.0636910253186676
 10
0.3384394137443083
 20
0.064047457238682
 10
0.3381030559041118
 20
0.0644591661986729
 10
0.3378632034080926
 20
0.064953716774772
 10
0.3376873430481808
 20
0.0655203215666598
 10
0.3375775914321872
 20
0.066156864590798
 10
0.3375360648561543
 20
0.0668612292386568
 10
0.3375357450563481
 20
0.0735562987107201
 10
0.3375357450563481
 20
0.0915858654867488
 10
0.3375357450563481
 20
0.1133219510787979
 10
0.3375357450563481
 20
0.1309808662226537
 10
0.3375295474880557
 20
0.1369718109746616
 10
0.3371957577201536
 20
0.1369718109746616
 10
0.3365396884882177
 20
0.1369718109746616
 10
0.3358216420162261
 20
0.1369718109746616
 10
0.3353019217763506
 20
0.1369718109746616
 10
0.3350991482962282
 20
0.1366261393107786
 10
0.3348246048321082
 20
0.1358162603187729
 10
0.3345126737843103
 20
0.135134164358798
 10
0.3341654714481574
 20
0.1345629213746919
 10
0.3337851138082621
 20
0.1340856013106579
 10
0.3332553527842332
 20
0.1337491308388019
 10
0.3326202399680813
 20
0.1335091235906827
 10
0.3319428015440451
 20
0.1333280696787518
 10
0.3312124557201601
 20
0.1332112603107678
 10
0.3304186216401641
 20
0.1331639857587978
 10
0.3236797323922023
 20
0.1331632169907326
 10
0.3041675438001308
 20
0.1331632169907326
 10
0.2801502920482717
 20
0.1331632169907326
 10
0.260228551976093
 20
0.1331632169907326
 10
0.2528219206401348
 20
0.1331635592547666
 10
0.2519730067041372
 20
0.1332073905746518
 10
0.2512343916322317
 20
0.1333210088067918
 10
0.250598667920082
 20
0.1334991230546727
 10
0.2500584293122623
 20
0.133736443358722
 10
0.2495987004321707
 20
0.1340649263186657
 10
0.2491842683361751
 20
0.1345381963106469
 10
0.248809037792042
 20
0.1351045827027169
 10
0.2484608401761301
 20
0.1357810158626336
 10
0.2481275068640842
 20
0.1365844261586986
 10
0.247898769056146
 20
0.1369718109746616
 10
0.2474257043601931
 20
0.1369718109746616
 10
0.2467547667683601
 20
0.1369718109746616
 10
0.2461303876882717
 20
0.1369718109746616
 10
0.2457969975921861
 20
0.1369718109746616
 10
0.2457867215601777
 20
0.1350628732947019
 10
0.2457867215601777
 20
0.1289397413188138
 10
0.2457867215601777
 20
0.1212396761666628
 10
0.2457867215601777
 20
0.1147223109747038
 10
0.2457873770721273
 20
0.1121397796467329
 10
0.2460592438883218
 20
0.1121397796467329
 10
0.246657018416343
 20
0.1121397796467329
 10
0.2473362695603622
 20
0.1121397796467329
 10
0.2478525671602521
 20
0.1121397796467329
 10
0.2480646681921277
 20
0.1123889072788069
 10
0.248362374848174
 20
0.1131895919426427
 10
0.2487003160882981
 20
0.113879423318644
 10
0.2490843116480272
 20
0.114458402030734
 10
0.2495201815761066
 20
0.1149265277667766
 10
0.2499886149442307
 20
0.1152741999747171
 10
0.2505158178801388
 20
0.1155220496546816
 10
0.2511374473041528
 20
0.1156921008866316
 10
0.2518609100963287
 20
0.1157928188547066
 10
0.2526936137602913
 20
0.1158326684307398
 10
0.2576696780483587
 20
0.1158341154867588
 10
0.2743784393120947
 20
0.1158341154867588
 10
0.2958611325440836
 20
0.1158341154867588
 10
0.3144060212961071
 20
0.1158341154867588
 10
0.3223013700563451
 20
0.1158341154867588
  0
LWPOLYLINE
  5
671
330
1F
100
AcDbEntity
  8
SSB-BLUE
370
     0
100
AcDbPolyline
 90
        2
 70
     1
 43
0.0
 10
0.2745606476240558
 20
0.3419122404867938
 10
0.2745606476240558
 20
0.3419122404867938
  0
LWPOLYLINE
  5
672
330
1F
100
AcDbEntity
  8
SSB-BLUE
370
     0
100
AcDbPolyline
 90
      100
 70
     1
 43
0.0
 10
0.2895093395121213
 20
0.3419122404867938
 10
0.3168293630480807
 20
0.3419122404867938
 10
0.3303790562961026
 20
0.3419118529827068
 10
0.331636891472133
 20
0.3417917049027728
 10
0.3327441532643478
 20
0.3414755471906967
 10
0.3337090809682266
 20
0.3409751484866947
 10
0.3343184556563017
 20
0.3400986468867768
 10
0.3348385428083382
 20
0.338885600558652
 10
0.3352177448001834
 20
0.3376466154867228
 10
0.3360179443041851
 20
0.3376466154867228
 10
0.3371430656001575
 20
0.3376466154867228
 10
0.3375357450563481
 20
0.3381363824787558
 10
0.3375357450563481
 20
0.3479136122786648
 10
0.3375357450563481
 20
0.3606811795588087
 10
0.3374701610961237
 20
0.364592416238712
 10
0.3365743963043579
 20
0.364592416238712
 10
0.335483678624195
 20
0.364592416238712
 10
0.3350498351363216
 20
0.3640031421507097
 10
0.3345748734802134
 20
0.3625724530466829
 10
0.3340063976241421
 20
0.361526650574683
 10
0.3332259130880706
 20
0.3608803466307298
 10
0.3321739701443107
 20
0.3604465324707617
 10
0.3309925871363513
 20
0.3602087276307988
 10
0.3249858813923483
 20
0.3601744475667088
 10
0.2915755401680577
 20
0.3601744475667088
 10
0.2581651986323408
 20
0.3601744475667088
 10
0.2521056906323684
 20
0.3602087276307988
 10
0.2509467850400666
 20
0.3604465324707617
 10
0.2500544204242363
 20
0.3608803466307298
 10
0.2493368644163088
 20
0.361526650574683
 10
0.2487241369760786
 20
0.3625724530466829
 10
0.2481746772082358
 20
0.3640031421507097
 10
0.2477136622643306
 20
0.364592416238712
 10
0.2466894517520606
 20
0.364592416238712
 10
0.245848306616196
 20
0.364592416238712
 10
0.2457867215601777
 20
0.3600620155587237
 10
0.2457867215601777
 20
0.3452732929347788
 10
0.2457867215601777
 20
0.333948289478649
 10
0.2461554572002562
 20
0.333380990486654
 10
0.2472119737521012
 20
0.333380990486654
 10
0.2479633805120827
 20
0.333380990486654
 10
0.2485398713360221
 20
0.3348080382387399
 10
0.2495156828482905
 20
0.3359098406547978
 10
0.2508201146003017
 20
0.3363279864867867
 10
0.2520321204082556
 20
0.3361681195587169
 10
0.2532583970960402
 20
0.3355573305748067
 10
0.2545192795760522
 20
0.3344525551107598
 10
0.2672933136801916
 20
0.322180526822796
 10
0.2930499261203661
 20
0.2974552990227877
 10
0.3071431670481131
 20
0.2839264005747628
 10
0.2925826200080923
 20
0.2839264005747628
 10
0.2659719649761767
 20
0.2839264005747628
 10
0.2527637622801278
 20
0.2839268111666438
 10
0.2514545625442492
 20
0.2840543402306599
 10
0.2504457174083621
 20
0.2843910871347499
 10
0.2496618146001222
 20
0.2849309772387789
 10
0.2490014447600517
 20
0.2858296635987196
 10
0.2484286452082323
 20
0.2870168167347038
 10
0.2479633805120827
 20
0.288268197566782
 10
0.2472119737521012
 20
0.288268197566782
 10
0.2461554572002562
 20
0.288268197566782
 10
0.2457867215601777
 20
0.2877791229027355
 10
0.2457867215601777
 20
0.2780157125187106
 10
0.2457867215601777
 20
0.2652661913187297
 10
0.245848306616196
 20
0.2613604826547879
 10
0.2466894517520606
 20
0.2613604826547879
 10
0.2477136622643306
 20
0.2613604826547879
 10
0.2481746772082358
 20
0.2618935858226896
 10
0.2487241369760786
 20
0.2632155769346829
 10
0.2493368644163088
 20
0.2642026076546395
 10
0.2500544204242363
 20
0.2648645468547786
 10
0.2509467850400666
 20
0.2653390994786431
 10
0.2521056906323684
 20
0.2655753761427326
 10
0.2581651986323408
 20
0.2656070647347688
 10
0.2915755401680577
 20
0.2656070647347688
 10
0.3249858813923483
 20
0.2656070647347688
 10
0.3309925871363513
 20
0.2655753761427326
 10
0.3321739701443107
 20
0.2653390994786431
 10
0.3332259130880706
 20
0.2648645468547786
 10
0.3340063976241421
 20
0.2642026076546395
 10
0.3345748734802134
 20
0.2632155769346829
 10
0.3350498351363216
 20
0.2618935858226896
 10
0.335483678624195
 20
0.2613604826547879
 10
0.3365743963043579
 20
0.2613604826547879
 10
0.3374701610961237
 20
0.2613604826547879
 10
0.3375357450563481
 20
0.2655453679827988
 10
0.3375357450563481
 20
0.2792062137267219
 10
0.3375357450563481
 20
0.2896675041506897
 10
0.3371430656001575
 20
0.2901915374787398
 10
0.3360179443041851
 20
0.2901915374787398
 10
0.3352177448001834
 20
0.2901915374787398
 10
0.3347742686241677
 20
0.2888407506387227
 10
0.3338774729840921
 20
0.2877629067027287
 10
0.3324962006242274
 20
0.287339925806692
 10
0.3313268233762816
 20
0.2876297057907129
 10
0.3297852032963187
 20
0.288683867990664
 10
0.3277157834243081
 20
0.2905162577187497
 10
0.3147643046242656
 20
0.3030371528067466
 10
0.2887790139680222
 20
0.3281637339746908
 10
0.2745606476240558
 20
0.3419122404867938
  0
LWPOLYLINE
  5
673
330
1F
100
AcDbEntity
  8
SSB-BLUE
370
     0
100
AcDbPolyline
 90
        2
 70
     1
 43
0.0
 10
0.3043819364722458
 20
0.3985269867266448
 10
0.3043819364722458
 20
0.3985269867266448
  0
LWPOLYLINE
  5
674
330
1F
100
AcDbEntity
  8
SSB-BLUE
370
     0
100
AcDbPolyline
 90
      100
 70
     1
 43
0.0
 10
0.3043819364722458
 20
0.4061530698147818
 10
0.3043819364722458
 20
0.4183135805666339
 10
0.3044089141760553
 20
0.4217860397906641
 10
0.3046886521280783
 20
0.4231598060547422
 10
0.3053048396482501
 20
0.424160974430762
 10
0.3061902142163619
 20
0.4249206348387498
 10
0.3075310632320267
 20
0.4255609452627738
 10
0.308704690544352
 20
0.4260160989748028
 10
0.308704690544352
 20
0.4270478271266658
 10
0.308704690544352
 20
0.4280399319027688
 10
0.3043600721361317
 20
0.428100716990699
 10
0.2925163646243058
 20
0.428100716990699
 10
0.2873575226242666
 20
0.4280702941826822
 10
0.2873575226242666
 20
0.4271452438227499
 10
0.2873575226242666
 20
0.426061700894759
 10
0.2884714209683157
 20
0.425604880478697
 10
0.2898803408962882
 20
0.4249745290946958
 10
0.2907856076482993
 20
0.4242178897827538
 10
0.2913733120642661
 20
0.4232521203026578
 10
0.291662452136177
 20
0.4219012404866658
 10
0.2916993193043238
 20
0.4170071903906579
 10
0.2916993193043238
 20
0.3942490542628048
 10
0.2916993193043238
 20
0.3778278552867058
 10
0.2923239130403425
 20
0.3777130218146527
 10
0.2934828123923525
 20
0.3777130218146527
 10
0.2939929991601682
 20
0.3783597341667577
 10
0.2946056108480652
 20
0.3798307692386738
 10
0.2953449126322987
 20
0.3808633419747598
 10
0.2962878655523111
 20
0.3815518897826457
 10
0.2975087577442146
 20
0.3818912206706497
 10
0.299097065816321
 20
0.3819596038948179
 10
0.3074763378083203
 20
0.3819596038948179
 10
0.3165396323603158
 20
0.3819596038948179
 10
0.3184864449682276
 20
0.3819089098226498
 10
0.3197585148323281
 20
0.3816019745187997
 10
0.3207265282162073
 20
0.3809595084866557
 10
0.3214821925283537
 20
0.3800037092787898
 10
0.32214592416834
 20
0.3785416710387528
 10
0.3225976284081753
 20
0.3777130218146527
 10
0.3234521748802646
 20
0.3777130218146527
 10
0.324014760800126
 20
0.3777130218146527
 10
0.3333001322720612
 20
0.3973242410786599
 10
0.3382404731840847
 20
0.4169077057587339
 10
0.3387453082160281
 20
0.4351259164707018
 10
0.3357802405520767
 20
0.4502015914227058
 10
0.3296070809362073
 20
0.4627347755668079
 10
0.3185294997201327
 20
0.4741147677747369
 10
0.3040011014720738
 20
0.4806444519748081
 10
0.2868585182481
 20
0.4818459465027268
 10
0.2718256010240188
 20
0.4781765837667798
 10
0.2595298154963412
 20
0.4696846557507888
 10
0.2506203519202597
 20
0.4572995368227418
 10
0.2455619121443382
 20
0.4420375741586438
 10
0.2442203249361841
 20
0.4259130388227379
 10
0.2444846469680746
 20
0.4199583125907838
 10
0.2451790893921206
 20
0.4142425424786778
 10
0.2463739947921653
 20
0.4087440981506659
 10
0.2481873562642951
 20
0.4027183179747738
 10
0.2505351475282431
 20
0.3961697240787321
 10
0.2516902704322517
 20
0.3930122953107458
 10
0.2523362002882257
 20
0.3906160495107858
 10
0.2523737825601851
 20
0.3891450855747198
 10
0.2518682723600776
 20
0.3879557712147839
 10
0.2509069208002606
 20
0.3865382756547317
 10
0.2510644995201963
 20
0.385857133166748
 10
0.2516097245120621
 20
0.3848400786866688
 10
0.2527884870322117
 20
0.385034796326682
 10
0.263366935640267
 20
0.3903032966547748
 10
0.2731470111920222
 20
0.3951741745107378
 10
0.2734409208081416
 20
0.39583842407075
 10
0.272912209976143
 20
0.39690642003875
 10
0.272338595792287
 20
0.3973661442387177
 10
0.2708693297601075
 20
0.3975200207666467
 10
0.2697957748882622
 20
0.3978087552387648
 10
0.2689971250881173
 20
0.398256814694729
 10
0.2680743698001766
 20
0.3991062365667419
 10
0.2669196178643602
 20
0.4005132130466618
 10
0.2647124849362337
 20
0.404386034726683
 10
0.2627350972642466
 20
0.409396460510648
 10
0.2611492178002122
 20
0.4153847367267818
 10
0.2601308410640373
 20
0.4212972908547528
 10
0.2597461756403625
 20
0.4269611566466898
 10
0.260838651440026
 20
0.4371738111506698
 10
0.2643692893042031
 20
0.446233181990698
 10
0.2706180602481609
 20
0.454065714542673
 10
0.2793184601121696
 20
0.4594951987587268
 10
0.2897911313601327
 20
0.4616790533666868
 10
0.3005071866322169
 20
0.4606585678227888
 10
0.3096042913763446
 20
0.456479352470653
 10
0.3168281353282953
 20
0.4493778449667581
 10
0.3212516273363057
 20
0.4405249878627418
 10
0.3232151765602866
 20
0.4298470287267869
 10
0.3232233656241616
 20
0.4221549701186658
 10
0.322639370888333
 20
0.4163076149426988
 10
0.3214500162802576
 20
0.4105400603187848
 10
0.3198453194723054
 20
0.4051905242307168
 10
0.3178749770720852
 20
0.4004200436067791
 10
0.3153262921283515
 20
0.3985269867266448
 10
0.3086000735122596
 20
0.3985269867266448
 10
0.3043819364722458
 20
0.3985269867266448
  0
LWPOLYLINE
  5
675
330
1F
100
AcDbEntity
  8
SSB-BLUE
370
     0
100
AcDbPolyline
 90
        2
 70
     1
 43
0.0
 10
0.3302994170480451
 20
0.5199259124786298
 10
0.3302994170480451
 20
0.5199259124786298
  0
LWPOLYLINE
  5
676
330
1F
100
AcDbEntity
  8
SSB-BLUE
370
     0
100
AcDbPolyline
 90
      100
 70
     1
 43
0.0
 10
0.3249858813923483
 20
0.5199259124786298
 10
0.3115830830480251
 20
0.5199259124786298
 10
0.2938977333920771
 20
0.5199259124786298
 10
0.2757365450482823
 20
0.5199259124786298
 10
0.2609062293922291
 20
0.5199259124786298
 10
0.2532134990480506
 20
0.5199259124786298
 10
0.2523432836242296
 20
0.5199361133187641
 10
0.2517329261362651
 20
0.5199838396468138
 10
0.2511928273041013
 20
0.5200748559748028
 10
0.2507154991281872
 20
0.5202138419907528
 10
0.2502934532961243
 20
0.5204054783187538
 10
0.2499192018083507
 20
0.5206544446466528
 10
0.2495778972083258
 20
0.5209748783187358
 10
0.2492598132081909
 20
0.5213724833187268
 10
0.2489658312081966
 20
0.5218408733187432
 10
0.2486905692081542
 20
0.5223823883186838
 10
0.2484286452082323
 20
0.5229993683188088
 10
0.2481746772082358
 20
0.5236941533186759
 10
0.2479759085601101
 20
0.5242677094706468
 10
0.2477574405442438
 20
0.5242677094706468
 10
0.2473362695603622
 20
0.5242677094706468
 10
0.2468205045440888
 20
0.5242677094706468
 10
0.2463182525603571
 20
0.5242677094706468
 10
0.2459376225440781
 20
0.5242677094706468
 10
0.2457867215601777
 20
0.5242677094706468
 10
0.2457867215601777
 20
0.5222321824707748
 10
0.2457867215601777
 20
0.5170977934707178
 10
0.2457867215601777
 20
0.5103228304707988
 10
0.2457867215601777
 20
0.5033655814706428
 10
0.2457867215601777
 20
0.4976843344707498
 10
0.2457867215601777
 20
0.4947373774707389
 10
0.2458741370961475
 20
0.4945987639827818
 10
0.246207470096059
 20
0.4945987639827818
 10
0.2466894517520606
 20
0.4945987639827818
 10
0.2472119737521012
 20
0.4945987639827818
 10
0.2476669280962502
 20
0.4945987639827818
 10
0.2479462070960192
 20
0.4945987639827818
 10
0.2480914468401956
 20
0.4949913866547618
 10
0.2483175176722474
 20
0.495718190654753
 10
0.248566461848239
 20
0.4963647326547438
 10
0.248840853680047
 20
0.4969282046548078
 10
0.2491432671681188
 20
0.4974057986546768
 10
0.2494762760000491
 20
0.4977947066547768
 10
0.2498322296240882
 20
0.4981067628146368
 10
0.2501957021362777
 20
0.4983887718147968
 10
0.2506050973041223
 20
0.4986111108147968
 10
0.2510679031282397
 20
0.4987775238147738
 10
0.2515916072960476
 20
0.4988917548146779
 10
0.2521836978081673
 20
0.4989575478146358
 10
0.2528516629762896
 20
0.4989786468147948
 10
0.2581651986323408
 20
0.4989786468147948
 10
0.2715679969763087
 20
0.4989786468147948
 10
0.2892533466322566
 20
0.4989786468147948
 10
0.3074145349760498
 20
0.4989786468147948
 10
0.3222448506321021
 20
0.4989786468147948
 10
0.3299375809762832
 20
0.4989786468147948
 10
0.3307672891282163
 20
0.4989638389826508
 10
0.3313561401441136
 20
0.4988980266387828
 10
0.3319093064721352
 20
0.4987795639826929
 10
0.3324314678002951
 20
0.4986084516386531
 10
0.3329273041280603
 20
0.4983846889827368
 10
0.3334014951441606
 20
0.4981082766386958
 10
0.3337935231440738
 20
0.497787486974691
 10
0.3340986788000917
 20
0.4974146566467828
 10
0.334379030144154
 20
0.4969734983187668
 10
0.3346336418001528
 20
0.4964574599907588
 10
0.3348615771441379
 20
0.4958599899746728
 10
0.3350619008003433
 20
0.4951745356467048
 10
0.335204403056176
 20
0.4945987639827818
 10
0.3354370577120482
 20
0.4945987639827818
 10
0.3358855770561506
 20
0.4945987639827818
 10
0.336434833712226
 20
0.4945987639827818
 10
0.336969699056187
 20
0.4945987639827818
 10
0.3373750457121387
 20
0.4945987639827818
 10
0.3375357450563481
 20
0.4945987639827818
 10
0.3375357450563481
 20
0.4966342909826618
 10
0.3375357450563481
 20
0.5017686799827188
 10
0.3375357450563481
 20
0.5085436429826378
 10
0.3375357450563481
 20
0.5155008919827928
 10
0.3375357450563481
 20
0.5211821389826868
 10
0.3375357450563481
 20
0.5241290959826981
 10
0.3374426533040307
 20
0.5242677094706468
 10
0.3370876753042458
 20
0.5242677094706468
 10
0.3365743963043579
 20
0.5242677094706468
 10
0.3360179443041851
 20
0.5242677094706468
 10
0.3355334473042513
 20
0.5242677094706468
 10
0.3352360333040156
 20
0.5242677094706468
 10
0.3350991482962282
 20
0.5238802809747938
 10
0.3348934426401851
 20
0.5231656789827328
 10
0.3346657412962122
 20
0.522529466990783
 10
0.3344169796400616
 20
0.5219693053106438
 10
0.3341480942960491
 20
0.5214828533186698
 10
0.3338600206402846
 20
0.5210677716386978
 10
0.3335172093920207
 20
0.520726192478743
 10
0.3330476983760846
 20
0.520462162478744
 10
0.3325577120481684
 20
0.5202566324786848
 10
0.3320425707202581
 20
0.5201049224787578
 10
0.3314975943921743
 20
0.5200023524787958
 10
0.330918103376252
 20
0.519944242478811
 10
0.3302994170480451
 20
0.5199259124786298
  0
LWPOLYLINE
  5
677
330
1F
100
AcDbEntity
  8
SSB-BLUE
370
     0
100
AcDbPolyline
 90
        2
 70
     1
 43
0.0
 10
0.2535943390403101
 20
0.5371978852227089
 10
0.2535943390403101
 20
0.5371978852227089
  0
LWPOLYLINE
  5
678
330
1F
100
AcDbEntity
  8
SSB-BLUE
370
     0
100
AcDbPolyline
 90
      100
 70
     1
 43
0.0
 10
0.2627370063921353
 20
0.5426154622707338
 10
0.2744918644161123
 20
0.5495809184306438
 10
0.2747611984160621
 20
0.5505814740387241
 10
0.2740359756322661
 20
0.5519851311507678
 10
0.2736406341922777
 20
0.5521567320867518
 10
0.273199227512082
 20
0.552111614702703
 10
0.2722398905361736
 20
0.5522100120147729
 10
0.2700518819601241
 20
0.5537291624786378
 10
0.2672087891362898
 20
0.5580296718867169
 10
0.2618244719121501
 20
0.5718489471747268
 10
0.2597661280400541
 20
0.5876233164867548
 10
0.2600273584641473
 20
0.5958028498227442
 10
0.2610130678642406
 20
0.6022079358866988
 10
0.2623905241522433
 20
0.6067323524066568
 10
0.2642246298802728
 20
0.610033967606646
 10
0.2665723506321127
 20
0.6126264748226778
 10
0.2691554270242786
 20
0.6140551331186859
 10
0.2722934297360817
 20
0.6143091117267839
 10
0.2760280319841311
 20
0.6122326759107249
 10
0.2783882842161072
 20
0.6071807953106783
 10
0.2792534230882637
 20
0.6020428569987688
 10
0.2801729342000358
 20
0.593456318102708
 10
0.2806989864803357
 20
0.5875722311667908
 10
0.281377420808055
 20
0.5799456938067058
 10
0.2820338226321652
 20
0.5734443906867499
 10
0.2832737196802721
 20
0.565368605774784
 10
0.2847947555601315
 20
0.558904241582745
 10
0.2867816629761082
 20
0.5532680180546881
 10
0.2894451461363747
 20
0.5482565320946878
 10
0.2928895047681967
 20
0.5441009613507748
 10
0.2972130775280206
 20
0.5407783298306468
 10
0.3021354756321752
 20
0.5384978344706588
 10
0.307433189144203
 20
0.5374240752386688
 10
0.3148138081042893
 20
0.5380191512786392
 10
0.3224617477282656
 20
0.5414876112866858
 10
0.3289424912960737
 20
0.5475743225668098
 10
0.3337619072482232
 20
0.5562904940307374
 10
0.3369248655921551
 20
0.5672260759347428
 10
0.3385161270560273
 20
0.5769498086546508
 10
0.3390210965601081
 20
0.5872808930547171
 10
0.3372239141603401
 20
0.6063491006547208
 10
0.3319087192880312
 20
0.6251431326386468
 10
0.3291579837682628
 20
0.6319397515586838
 10
0.3284801278883123
 20
0.6340653538947798
 10
0.3285037244481277
 20
0.635130815174771
 10
0.3291709118002437
 20
0.6365354363667311
 10
0.3299599332800591
 20
0.6378633835586918
 10
0.3292554051441208
 20
0.6391941584068031
 10
0.3286715763922432
 20
0.6399085794386519
 10
0.3176929715601071
 20
0.6342503751987528
 10
0.3067143670401107
 20
0.6285921712708138
 10
0.3068812879762826
 20
0.6276777326546768
 10
0.3074292542000316
 20
0.6262910427267841
 10
0.3077906659520222
 20
0.6261475919906978
 10
0.3081339963683316
 20
0.6261475919906978
 10
0.30946960846404
 20
0.6260180998227641
 10
0.3120210639682677
 20
0.6247436253748018
 10
0.3146653872082687
 20
0.6217205016867174
 10
0.3178465604243117
 20
0.6154926724947698
 10
0.3205684599682703
 20
0.6069522796468032
 10
0.3225281173040537
 20
0.5976653260227889
 10
0.323304306224081
 20
0.5887103915667789
 10
0.3229831583840639
 20
0.5798509406547599
 10
0.3214479405441466
 20
0.572086736726642
 10
0.319439866424271
 20
0.5670757078467768
 10
0.317454115592052
 20
0.5641243001666548
 10
0.3150422117600717
 20
0.5618293033587558
 10
0.3124933271363259
 20
0.5603651038947688
 10
0.309728276120067
 20
0.559988257814803
 10
0.3062838529042873
 20
0.5614586273907718
 10
0.3038921729123176
 20
0.5652889917987758
 10
0.3025775771360406
 20
0.5702480998227509
 10
0.3014664128482387
 20
0.5784579523826819
 10
0.3008952450561901
 20
0.5845540919908068
 10
0.3002258084962328
 20
0.5921808867506498
 10
0.2996647647920962
 20
0.598621513982764
 10
0.2987263580240311
 20
0.6067840635987079
 10
0.2978333260403039
 20
0.6121442117427068
 10
0.2965701631520803
 20
0.6167046196467428
 10
0.2948604521362616
 20
0.621291635222637
 10
0.2915560732403426
 20
0.6270169369346781
 10
0.2870277364401668
 20
0.6316015744467838
 10
0.2818657351280578
 20
0.6345922086386829
 10
0.276137862224286
 20
0.6360308930547172
 10
0.2678114027842167
 20
0.6356012359828039
 10
0.2590869405442824
 20
0.6316203509188148
 10
0.2514086439442673
 20
0.6228845128467948
 10
0.2457976144163316
 20
0.6077005919906258
 10
0.2442196210640386
 20
0.5890881206068031
 10
0.2446251006321471
 20
0.5801659636226689
 10
0.2457478335681928
 20
0.5718800800946498
 10
0.2478710890401716
 20
0.5631412639827378
 10
0.2512323789200908
 20
0.5526385786466928
 10
0.2533678036403488
 20
0.5463697024227128
 10
0.254020722920111
 20
0.5439819427107842
 10
0.2540556357201407
 20
0.5425943576547439
 10
0.2534699430802529
 20
0.540882011486807
 10
0.2526318312081628
 20
0.5393265080307508
 10
0.2531732416881436
 20
0.538129157798704
 10
0.2535943390403101
 20
0.5371978852227089
  0
LWPOLYLINE
  5
679
330
1F
100
AcDbEntity
  8
SSB-BLUE
370
     0
100
AcDbPolyline
 90
       12
 70
     1
 43
0.0
 10
0.3351934599850805
 20
0.2613604827565878
 10
0.3352480135835947
 20
0.2613604827565878
 10
0.3353975960316946
 20
0.2613604827565878
 10
0.3356210898068266
 20
0.2613604827565878
 10
0.3358973773871225
 20
0.2613604827565878
 10
0.3362053412507411
 20
0.2613604827565878
 10
0.3365238638754633
 20
0.2613604827565878
 10
0.3368318277387221
 20
0.2613604827565878
 10
0.3371081153193778
 20
0.2613604827565878
 10
0.3373316090945071
 20
0.2613604827565878
 10
0.3374811915426088
 20
0.2613604827565878
 10
0.3375357451411221
 20
0.2613604827565878
  0
LWPOLYLINE
  5
67A
330
1F
100
AcDbEntity
  8
SSB-BLUE
370
     0
100
AcDbPolyline
 90
      202
 70
     1
 43
0.0
 10
0.4040527815883879
 20
0.4435636076547498
 10
0.4040527815883879
 20
0.4560938811507423
 10
0.40213603114411
 20
0.4560938811507423
 10
0.3906819579680416
 20
0.4560938811507423
 10
0.389890036136256
 20
0.456131789150664
 10
0.389271486464092
 20
0.4562631876386538
 10
0.3887267491281081
 20
0.4564741311507122
 10
0.3882835531280371
 20
0.4567880396547728
 10
0.3879186884720971
 20
0.457283116574732
 10
0.3876061377923259
 20
0.4578831793107088
 10
0.3873308511443296
 20
0.4585932435746641
 10
0.3871262256321426
 20
0.4588170255746578
 10
0.3866662034723101
 20
0.4588170255746578
 10
0.3861825329603636
 20
0.4588170255746578
 10
0.3860001006322173
 20
0.4586498534786588
 10
0.3860001006322173
 20
0.4501698675747928
 10
0.3860001006322173
 20
0.435630459470755
 10
0.3860001006322173
 20
0.424457396894769
 10
0.38601519363222
 20
0.4209672831506888
 10
0.3861204349762337
 20
0.4176987820707719
 10
0.3863389033042397
 20
0.4148957291427378
 10
0.3866856476241951
 20
0.4125806975667428
 10
0.3872183386402366
 20
0.410528522558785
 10
0.3879373526240757
 20
0.4086236137346769
 10
0.3888677706322046
 20
0.4068609550706879
 10
0.3899942881283076
 20
0.4051632351507588
 10
0.3913714364720873
 20
0.4035814475667188
 10
0.3930567338000124
 20
0.402245104142732
 10
0.3950276059760176
 20
0.4011567127347618
 10
0.3971167361363674
 20
0.400351468814653
 10
0.3992252006240591
 20
0.3998107409907927
 10
0.4013895614722687
 20
0.3995201154866668
 10
0.4051533709761026
 20
0.3995588499747518
 10
0.4115873326402646
 20
0.4014627008067318
 10
0.4162089496400406
 20
0.4057980599906928
 10
0.4189881239601965
 20
0.4125749608226528
 10
0.4210754208082826
 20
0.4138084359746808
 10
0.4268326666403573
 20
0.4097518778066478
 10
0.4328858787920123
 20
0.405486781646661
 10
0.4354979231360812
 20
0.4036433199746808
 10
0.4375326604641847
 20
0.4021590189747358
 10
0.4390958584643779
 20
0.400938435974719
 10
0.4401825008000833
 20
0.3999615053186467
 10
0.440858502464061
 20
0.3991690399826488
 10
0.4413544922962585
 20
0.3983184914786988
 10
0.4416813584721658
 20
0.3973557911427088
 10
0.4418340849680594
 20
0.3962608733186968
 10
0.4420817983042973
 20
0.3962608733186968
 10
0.4425975296241447
 20
0.3962608733186968
 10
0.4430401649601823
 20
0.3962608733186968
 10
0.4431290069602527
 20
0.3970805350706388
 10
0.4431290069602527
 20
0.4035203576547178
 10
0.4431290069602527
 20
0.4119004424068078
 10
0.4431290069602527
 20
0.4167880553186838
 10
0.4429410463041848
 20
0.416884408406808
 10
0.4424427189683052
 20
0.416884408406808
 10
0.4419687569601223
 20
0.416884408406808
 10
0.4417740836241038
 20
0.4165636018947679
 10
0.4414800794722025
 20
0.4156448629828118
 10
0.4410477669680298
 20
0.4150493220627918
 10
0.4404671131280598
 20
0.4147845036386891
 10
0.4399110498801751
 20
0.4148486389827318
 10
0.4391079434721235
 20
0.4152223759827658
 10
0.4379515410563802
 20
0.4159092779906768
 10
0.4365954149601823
 20
0.4168053788067208
 10
0.4326374865440723
 20
0.4195583276547028
 10
0.4258513976240517
 20
0.4242784124786568
 10
0.4206365088800928
 20
0.4279056439826868
 10
0.4199727569603216
 20
0.429409905806693
 10
0.4199727569603216
 20
0.4346043619826819
 10
0.4199727569603216
 20
0.4406566184787982
 10
0.4199727569603216
 20
0.4435636076547498
 10
0.4235718866241225
 20
0.4435636076547498
 10
0.4310651563043298
 20
0.4435636076547498
 10
0.437496387968273
 20
0.4435636076547498
 10
0.4390792419681011
 20
0.4435546573107679
 10
0.4396927412961836
 20
0.4434667169907418
 10
0.4402274116400795
 20
0.4432909904786908
 10
0.4407033189682626
 20
0.4430350016546738
 10
0.4410933629603724
 20
0.4426346058147548
 10
0.4414070056403006
 20
0.4420928374707258
 10
0.4416683349683437
 20
0.4414457248227058
 10
0.4418576216242221
 20
0.4409356781426848
 10
0.4422167189601423
 20
0.4409356781426848
 10
0.4427463729681636
 20
0.4409356781426848
 10
0.4431054703040882
 20
0.4409356781426848
 10
0.4431290069602527
 20
0.4427953382307539
 10
0.4431290069602527
 20
0.4493401974867389
 10
0.4431290069602527
 20
0.4562215122386731
 10
0.4431229569682431
 20
0.4588170255746578
 10
0.4428160709602978
 20
0.4588170255746578
 10
0.4422898976241401
 20
0.4588170255746578
 10
0.4418855503043311
 20
0.4588170255746578
 10
0.4416973412962673
 20
0.4583788509027258
 10
0.4414158099683379
 20
0.4577007276386631
 10
0.4410805319602158
 20
0.4571311725747958
 10
0.4406915069601105
 20
0.4566651703107838
 10
0.4402700972962688
 20
0.4564066221506278
 10
0.4397669923041203
 20
0.4562168699907799
 10
0.4391721596240581
 20
0.4561109631506369
 10
0.4368663404721121
 20
0.4560938811507423
 10
0.4217746786403405
 20
0.4560938811507423
 10
0.4040527815883879
 20
0.4560938811507423
 10
0.4040527815883879
 20
0.4435636076547498
 10
0.4059254711360972
 20
0.4435636076547498
 10
0.4076596142481863
 20
0.4435636076547498
 10
0.4090599888082203
 20
0.4435636076547498
 10
0.409995990680109
 20
0.4435636076547498
 10
0.4103370147920478
 20
0.4435636076547498
 10
0.4103370147920478
 20
0.4419249752306498
 10
0.4103370147920478
 20
0.4401280658306539
 10
0.4103370147920478
 20
0.4379028771506808
 10
0.4103370147920478
 20
0.4354169971826578
 10
0.4103370147920478
 20
0.432838012982634
 10
0.4103370147920478
 20
0.4303335122307428
 10
0.4103370147920478
 20
0.4280710819826848
 10
0.4103370147920478
 20
0.4262183099187738
 10
0.4103370147920478
 20
0.4249427834066588
 10
0.4103370147920478
 20
0.4244120901266668
 10
0.4103369367921621
 20
0.4237419284787168
 10
0.4103362663042987
 20
0.4230242832386968
 10
0.4103343372080577
 20
0.4223403442947738
 10
0.4103304830723103
 20
0.4216922772387038
 10
0.4103240374641608
 20
0.4210822479747418
 10
0.4103143342642657
 20
0.4205124217826928
 10
0.4103007070400829
 20
0.4199849642546738
 10
0.4102824890483579
 20
0.4195020412947628
 10
0.4102590147922438
 20
0.4190658188066898
 10
0.4102296169042053
 20
0.4186784617586468
 10
0.4101936298881182
 20
0.4183421363666718
 10
0.4101350029041689
 20
0.4180250607507979
 10
0.4100662084642038
 20
0.4177110683186998
 10
0.4099918607362261
 20
0.417403924598673
 10
0.4099119603441608
 20
0.4171027962387069
 10
0.4098265069762226
 20
0.4168068508226539
 10
0.4097355006320571
 20
0.4165152553106429
 10
0.4096389413123767
 20
0.4162271763506498
 10
0.4095368290161128
 20
0.4159417815267168
 10
0.4094291640561183
 20
0.4156582377987888
 10
0.4093159458081113
 20
0.4153757118146669
 10
0.4091971748963701
 20
0.4150933711587488
 10
0.4089341607680553
 20
0.4146426990147148
 10
0.4085645736802582
 20
0.4141469556627518
 10
0.4081513499603258
 20
0.4136984584707318
 10
0.4076944059923582
 20
0.4132977902547888
 10
0.4071936587840357
 20
0.4129455344547668
 10
0.4066490247201627
 20
0.4126422741987468
 10
0.4060604208080596
 20
0.4123885919907058
 10
0.4054277637443278
 20
0.4121850715826448
 10
0.4047509702241401
 20
0.4120322954787108
 10
0.4040299566323107
 20
0.4119308471187689
 10
0.4032646399761602
 20
0.4118813093187548
 10
0.4024643156720594
 20
0.4118842318226368
 10
0.4017024141681107
 20
0.4119395662707488
 10
0.4009914700640591
 20
0.4120467466946538
 10
0.4003297339760384
 20
0.412205189654673
 10
0.3997154571440911
 20
0.4124143126466531
 10
0.3991468901843467
 20
0.4126735319187689
 10
0.3986222837122177
 20
0.4129822652786528
 10
0.3981398889681129
 20
0.4133399289746578
 10
0.3976979565681624
 20
0.4137459401906778
 10
0.3972947371281288
 20
0.4141997157988078
 10
0.3969284818880707
 20
0.4147006726707981
 10
0.3966726968002776
 20
0.4151289709827118
 10
0.396527270792367
 20
0.4154183219666639
 10
0.3963913401922738
 20
0.4157049700947498
 10
0.3962650716082283
 20
0.415990248854738
 10
0.3961486319602381
 20
0.4162754904867288
 10
0.3960421872322506
 20
0.4165620278547438
 10
0.3959459046560507
 20
0.4168511935106638
 10
0.3958599505280906
 20
0.4171443203186938
 10
0.3957844911440915
 20
0.4174427411426729
 10
0.3957196937362077
 20
0.4177477882227008
 10
0.395665724288027
 20
0.4180607944227988
 10
0.3956223375682271
 20
0.4183767187587888
 10
0.3955842897922919
 20
0.4187161251506338
 10
0.395549943896226
 20
0.4191039530067018
 10
0.3955192998800321
 20
0.419539036382798
 10
0.3954923577440592
 20
0.4200202090227739
 10
0.3954691178000917
 20
0.4205463049827918
 10
0.3954495797363471
 20
0.4211161580066998
 10
0.39543374355212
 20
0.4217286018386988
 10
0.3954216092481131
 20
0.4223824705347808
 10
0.3954131771361116
 20
0.4230765981507508
 10
0.3954084469043382
 20
0.4238098184308128
 10
0.3954073271362617
 20
0.4244290632387889
 10
0.3954073271362617
 20
0.4250507918787108
 10
0.3954073271362617
 20
0.4263987326547479
 10
0.3954073271362617
 20
0.4283052981987168
 10
0.3954073271362617
 20
0.4306029011427888
 10
0.3954073271362617
 20
0.4331239538066419
 10
0.3954073271362617
 20
0.4357008688228108
 10
0.3954073271362617
 20
0.4381660591347108
 10
0.3954073271362617
 20
0.4403519370627338
 10
0.3954073271362617
 20
0.4420909152386959
 10
0.3954073271362617
 20
0.4432154059826328
 10
0.395411776256033
 20
0.4435636076547498
 10
0.3958253584642897
 20
0.4435636076547498
 10
0.3968194070002298
 20
0.4435636076547498
 10
0.3982633167920513
 20
0.4435636076547498
 10
0.4000264827683147
 20
0.4435636076547498
 10
0.4019783007922158
 20
0.4435636076547498
  0
TEXT
  5
67B
330
1F
100
AcDbEntity
  8
SSB-BLUE
370
     0
100
AcDbText
 10
1.999886507379248
 20
0.6388811941147868
 30
0.0
 40
0.06
  1
De-Embedding
 50
90.0
 71
     2
 72
     1
 11
1.969886507379248
 21
0.3593245774708578
 31
0.0
100
AcDbText
 73
     2
1001
ACAD
1000
ACAD_MTEXT_DEFINED_HEIGHT_BEGIN
1070
    46
1040
0.0613298429
1000
ACAD_MTEXT_DEFINED_HEIGHT_END
  0
TEXT
  5
67C
330
1F
100
AcDbEntity
  8
SSB-BLUE
370
     0
100
AcDbText
 10
2.089349632015211
 20
0.6228954019008797
 30
0.0
 40
0.05
  1
Plug and Play Kit
 50
90.0
 71
     2
 72
     1
 11
2.064349632015211
 21
0.356916547876323
 31
0.0
100
AcDbText
 73
     2
1001
ACAD
1000
ACAD_MTEXT_DEFINED_HEIGHT_BEGIN
1070
    46
1040
0.0613298429
1000
ACAD_MTEXT_DEFINED_HEIGHT_END
  0
LWPOLYLINE
  5
67D
330
1F
100
AcDbEntity
  8
SSB-WHITE
370
     0
100
AcDbPolyline
 90
        4
 70
     1
 43
0.0
 10
0.4934999200367063
 20
0.6939999921966238
 10
1.868499920036708
 20
0.6939999921966238
 10
1.868499920036708
 20
0.3939999921966249
 10
0.4934999200367063
 20
0.3939999921966249
  0
TEXT
  5
67E
330
1F
100
AcDbEntity
  8
FAB
370
     0
100
AcDbText
 10
1.568424696520936
 20
0.0359920319239028
 30
0.0
 40
0.05
  1
907-000-10143
 72
     1
 11
1.805344887516843
 21
0.0609920319239028
 31
0.0
100
AcDbText
 73
     2
1001
ACAD
1000
ACAD_MTEXT_DEFINED_HEIGHT_BEGIN
1070
    46
1040
0.0613298429
1000
ACAD_MTEXT_DEFINED_HEIGHT_END
  0
ENDSEC
  0
SECTION
  2
OBJECTS
  0
DICTIONARY
  5
C
330
0
100
AcDbDictionary
281
     1
  3
ACAD_CIP_PREVIOUS_PRODUCT_INFO
350
216
  3
ACAD_COLOR
350
6B
  3
ACAD_DETAILVIEWSTYLE
350
21B
  3
ACAD_GROUP
350
D
  3
ACAD_LAYOUT
350
1A
  3
ACAD_MATERIAL
350
6A
  3
ACAD_MLEADERSTYLE
350
12D
  3
ACAD_MLINESTYLE
350
17
  3
ACAD_PLOTSETTINGS
350
19
  3
ACAD_PLOTSTYLENAME
350
E
  3
ACAD_SCALELIST
350
10C
  3
ACAD_SECTIONVIEWSTYLE
350
219
  3
ACAD_TABLESTYLE
350
7E
  3
ACAD_VISUALSTYLE
350
EF
  3
ACDB_RECOMPOSE_DATA
350
680
  3
AcDbVariableDictionary
350
5E
  3
DWGPROPS
350
681
  0
DICTIONARY
  5
1FF
330
2
100
AcDbDictionary
280
     1
281
     1
  3
ACAD_LAYERSTATES
360
200
  0
DICTIONARY
  5
13C
330
10
100
AcDbDictionary
280
     1
281
     1
  0
DICTIONARY
  5
232
330
231
100
AcDbDictionary
280
     1
281
     1
  0
DICTIONARY
  5
234
330
233
100
AcDbDictionary
280
     1
281
     1
  0
DICTIONARY
  5
236
330
235
100
AcDbDictionary
280
     1
281
     1
  0
DICTIONARY
  5
238
330
237
100
AcDbDictionary
280
     1
281
     1
  0
DICTIONARY
  5
23A
330
239
100
AcDbDictionary
280
     1
281
     1
  0
DICTIONARY
  5
23D
330
23C
100
AcDbDictionary
280
     1
281
     1
  0
DICTIONARY
  5
1CE
330
1F
100
AcDbDictionary
280
     1
281
     1
  0
XRECORD
  5
216
102
{ACAD_REACTORS
330
C
102
}
330
C
100
AcDbXrecord
280
     1
300
ACDLT
300
2013
300
ACDLT_F_S
  0
DICTIONARY
  5
6B
102
{ACAD_REACTORS
330
C
102
}
330
C
100
AcDbDictionary
281
     1
  0
DICTIONARY
  5
21B
102
{ACAD_REACTORS
330
C
102
}
330
C
100
AcDbDictionary
281
     1
  3
Metric50
350
21C
  0
DICTIONARY
  5
D
102
{ACAD_REACTORS
330
C
102
}
330
C
100
AcDbDictionary
281
     1
  0
DICTIONARY
  5
1A
102
{ACAD_REACTORS
330
C
102
}
330
C
100
AcDbDictionary
281
     1
  3
Layout1
350
D3
  3
Layout2
350
D7
  3
Model
350
22
  0
DICTIONARY
  5
6A
102
{ACAD_REACTORS
330
C
102
}
330
C
100
AcDbDictionary
281
     1
  3
ByBlock
350
ED
  3
ByLayer
350
EC
  3
Global
350
EE
  0
DICTIONARY
  5
12D
102
{ACAD_REACTORS
330
C
102
}
330
C
100
AcDbDictionary
281
     1
  3
Annotative
350
13B
  3
Standard
350
12E
  0
DICTIONARY
  5
17
102
{ACAD_REACTORS
330
C
102
}
330
C
100
AcDbDictionary
281
     1
  3
Standard
350
18
  0
DICTIONARY
  5
19
102
{ACAD_REACTORS
330
C
102
}
330
C
100
AcDbDictionary
281
     1
  0
ACDBDICTIONARYWDFLT
  5
E
102
{ACAD_REACTORS
330
C
102
}
330
C
100
AcDbDictionary
281
     1
  3
Normal
350
F
100
AcDbDictionaryWithDefault
340
F
  0
DICTIONARY
  5
10C
102
{ACAD_REACTORS
330
C
102
}
330
C
100
AcDbDictionary
281
     1
  3
A0
350
10D
  3
A1
350
1BE
  3
A2
350
1BF
  3
A3
350
1C0
  3
A4
350
1C1
  3
A5
350
1C2
  3
A6
350
1C3
  3
A7
350
1C4
  3
A8
350
1C5
  3
A9
350
1C6
  3
B0
350
1C7
  3
B1
350
1C8
  3
B2
350
1C9
  3
B3
350
1CA
  3
B4
350
1CB
  3
B5
350
1CC
  3
B6
350
1CD
  0
DICTIONARY
  5
219
102
{ACAD_REACTORS
330
C
102
}
330
C
100
AcDbDictionary
281
     1
  3
Metric50
350
21A
  0
DICTIONARY
  5
7E
102
{ACAD_REACTORS
330
C
102
}
330
C
100
AcDbDictionary
281
     1
  3
Standard
350
7F
  0
DICTIONARY
  5
EF
102
{ACAD_REACTORS
330
C
102
}
330
C
100
AcDbDictionary
281
     1
  3
2dWireframe
350
F5
  3
Basic
350
F4
  3
Brighten
350
FB
  3
ColorChange
350
FF
  3
Conceptual
350
F8
  3
Dim
350
FA
  3
EdgeColorOff
350
1E6
  3
Facepattern
350
FE
  3
Flat
350
F0
  3
FlatWithEdges
350
F1
  3
Gouraud
350
F2
  3
GouraudWithEdges
350
F3
  3
Hidden
350
F7
  3
JitterOff
350
1E4
  3
Linepattern
350
FD
  3
OverhangOff
350
1E5
  3
Realistic
350
F9
  3
Shaded
350
1F3
  3
Shaded with edges
350
1F2
  3
Shades of Gray
350
1EF
  3
Sketchy
350
1F0
  3
Thicken
350
FC
  3
Wireframe
350
F6
  3
X-Ray
350
1F1
  0
XRECORD
  5
680
102
{ACAD_REACTORS
330
C
102
}
330
C
100
AcDbXrecord
280
     1
 90
        1
330
7F
  0
DICTIONARY
  5
5E
102
{ACAD_REACTORS
330
C
102
}
330
C
100
AcDbDictionary
281
     1
  3
CANNOSCALE
350
146
  3
CMLEADERSTYLE
350
145
  3
CTABLESTYLE
350
84
  3
CVIEWDETAILSTYLE
350
227
  3
CVIEWSECTIONSTYLE
350
228
  3
DIMASSOC
350
5F
  3
HIDETEXT
350
63
  3
INDEXCTL
350
2E0
  3
LAYEREVAL
350
1AE
  3
LAYERNOTIFY
350
1AF
  3
LIGHTINGUNITS
350
2DE
  3
MSLTSCALE
350
2DD
  3
PSOLHEIGHT
350
407
  3
PSOLWIDTH
350
406
  3
SORTENTS
350
2DF
  3
XCLIPFRAME
350
408
  0
XRECORD
  5
681
102
{ACAD_REACTORS
330
C
102
}
330
C
100
AcDbXrecord
280
     1
  1
DWGPROPS COOKIE
  2

  3

  4

  6

  7

  8
Peter-EMMETT
  9

300
=
301
=
302
=
303
=
304
=
305
=
306
=
307
=
308
=
309
=
 40
0.0026326851851852
 41
2458166.469966319
 42
2458166.480816887
  1

 90
        0
  0
DICTIONARY
  5
200
102
{ACAD_REACTORS
330
1FF
102
}
330
1FF
100
AcDbDictionary
281
     1
  0
ACDBDETAILVIEWSTYLE
  5
21C
102
{ACAD_REACTORS
330
21B
102
}
330
21B
100
AcDbModelDocViewStyle
 70
     0
  3
Metric50
290
     0
100
AcDbDetailViewStyle
 70
     0
 71
     0
 90
        3
 71
     1
340
11
 40
5.0
340
0
 40
5.0
300

 40
0.0
280
     1
 71
     2
340
16
 90
       25
 71
     3
340
11
 40
5.0
 90
        0
 40
15.0
 90
        1
300
%<\AcVar ViewDetailId>% (%<\AcVar ViewScale \f "%sn">%)
 71
     4
340
16
 90
       25
340
16
 90
       25
280
     0
  0
LAYOUT
  5
D3
102
{ACAD_XDICTIONARY
360
685
102
}
102
{ACAD_REACTORS
330
1A
102
}
330
1A
100
AcDbPlotSettings
  1

  2
C:\Documents and Settings\basas\Application Data\Autodesk\AutoCAD 2005\R16.1\enu\plotters\Default Windows System Printer.pc3
  4

  6

 40
0.0
 41
0.0
 42
0.0
 43
0.0
 44
0.0
 45
0.0
 46
0.0
 47
0.0
 48
0.0
 49
0.0
140
0.0
141
0.0
142
1.0
143
1.0
 70
   688
 72
     0
 73
     0
 74
     5
  7

 75
    16
147
1.0
148
0.0
149
0.0
100
AcDbLayout
  1
Layout1
 70
     1
 71
     1
 10
0.0
 20
0.0
 11
12.0
 21
9.0
 12
0.0
 22
0.0
 32
0.0
 14
0.0
 24
0.0
 34
0.0
 15
0.0
 25
0.0
 35
0.0
146
0.0
 13
0.0
 23
0.0
 33
0.0
 16
1.0
 26
0.0
 36
0.0
 17
0.0
 27
1.0
 37
0.0
 76
     0
330
D2
  0
LAYOUT
  5
D7
102
{ACAD_XDICTIONARY
360
687
102
}
102
{ACAD_REACTORS
330
1A
102
}
330
1A
100
AcDbPlotSettings
  1

  2
C:\Documents and Settings\basas\Application Data\Autodesk\AutoCAD 2005\R16.1\enu\plotters\Default Windows System Printer.pc3
  4

  6

 40
0.0
 41
0.0
 42
0.0
 43
0.0
 44
0.0
 45
0.0
 46
0.0
 47
0.0
 48
0.0
 49
0.0
140
0.0
141
0.0
142
1.0
143
1.0
 70
   688
 72
     0
 73
     0
 74
     5
  7

 75
    16
147
1.0
148
0.0
149
0.0
100
AcDbLayout
  1
Layout2
 70
     1
 71
     2
 10
0.0
 20
0.0
 11
12.0
 21
9.0
 12
0.0
 22
0.0
 32
0.0
 14
0.0
 24
0.0
 34
0.0
 15
0.0
 25
0.0
 35
0.0
146
0.0
 13
0.0
 23
0.0
 33
0.0
 16
1.0
 26
0.0
 36
0.0
 17
0.0
 27
1.0
 37
0.0
 76
     0
330
D6
  0
LAYOUT
  5
22
102
{ACAD_XDICTIONARY
360
682
102
}
102
{ACAD_REACTORS
330
1A
102
}
330
1A
100
AcDbPlotSettings
  1

  2
none_device
  4
ISO_A4_(210.00_x_297.00_MM)
  6

 40
7.5
 41
20.0
 42
7.5
 43
20.0
 44
210.0
 45
297.0
 46
11.54999923706054
 47
-13.65000009536743
 48
0.0
 49
0.0
140
0.0
141
0.0
142
1.0
143
8.704084754739808
 70
 11952
 72
     1
 73
     0
 74
     0
  7

 75
     0
147
0.1148885871608098
148
0.0
149
0.0
100
AcDbLayout
  1
Model
 70
     1
 71
     0
 10
0.0
 20
0.0
 11
12.0
 21
9.0
 12
0.0
 22
0.0
 32
0.0
 14
0.0
 24
0.0
 34
0.0
 15
0.0
 25
0.0
 35
0.0
146
0.0
 13
0.0
 23
0.0
 33
0.0
 16
1.0
 26
0.0
 36
0.0
 17
0.0
 27
1.0
 37
0.0
 76
     0
330
1F
331
EA
1001
ACAD_PSEXT
1000
None
1000
None
1000
Not applicable
1000
The layout will not be plotted unless a new plotter configuration name is selected.
1070
     0
  0
MATERIAL
  5
ED
102
{ACAD_XDICTIONARY
360
1F9
102
}
102
{ACAD_REACTORS
330
6A
102
}
330
6A
100
AcDbMaterial
  1
ByBlock
  0
MATERIAL
  5
EC
102
{ACAD_XDICTIONARY
360
1F7
102
}
102
{ACAD_REACTORS
330
6A
102
}
330
6A
100
AcDbMaterial
  1
ByLayer
  0
MATERIAL
  5
EE
102
{ACAD_XDICTIONARY
360
173
102
}
102
{ACAD_REACTORS
330
6A
102
}
330
6A
100
AcDbMaterial
  1
Global
 43
0.0007999999797903
 43
0.0
 43
0.0
 43
0.0
 43
0.0
 43
0.0007999999797903
 43
0.0
 43
0.0
 43
0.0
 43
0.0
 43
1.0
 43
0.0
 43
0.0
 43
0.0
 43
0.0
 43
1.0
 49
0.0007999999797903
 49
0.0
 49
0.0
 49
0.0
 49
0.0
 49
0.0007999999797903
 49
0.0
 49
0.0
 49
0.0
 49
0.0
 49
1.0
 49
0.0
 49
0.0
 49
0.0
 49
0.0
 49
1.0
142
0.0007999999797903
142
0.0
142
0.0
142
0.0
142
0.0
142
0.0007999999797903
142
0.0
142
0.0
142
0.0
142
0.0
142
1.0
142
0.0
142
0.0
142
0.0
142
0.0
142
1.0
144
0.0007999999797903
144
0.0
144
0.0
144
0.0
144
0.0
144
0.0007999999797903
144
0.0
144
0.0
144
0.0
144
0.0
144
1.0
144
0.0
144
0.0
144
0.0
144
0.0
144
1.0
1001
ACAD
1070
    -1
1070
     3
1070
     0
1000

1071
        0
1070
     0
  0
MLEADERSTYLE
  5
13B
102
{ACAD_REACTORS
330
12D
102
}
330
12D
100
AcDbMLeaderStyle
170
     2
171
     1
172
     0
 90
        2
 40
0.0
 41
0.0
173
     1
 91
-1056964608
340
14
 92
       -2
290
     1
 42
2.0
291
     1
 43
8.0
  3
Standard
 44
4.0
300

342
11
174
     1
178
     1
175
     1
176
     0
 93
-1056964608
 45
4.0
292
     0
297
     0
 46
4.0
 94
-1056964608
 47
1.0
 49
1.0
140
1.0
293
     1
141
0.0
294
     1
177
     0
142
1.0
295
     0
296
     1
143
3.75
1001
ACAD_MLEADERVER
1070
     2
  0
MLEADERSTYLE
  5
12E
102
{ACAD_REACTORS
330
12D
102
}
330
12D
100
AcDbMLeaderStyle
170
     2
171
     1
172
     0
 90
        2
 40
0.0
 41
0.0
173
     1
 91
-1056964608
340
14
 92
       -2
290
     1
 42
2.0
291
     1
 43
8.0
  3
Standard
 44
4.0
300

342
11
174
     1
178
     1
175
     1
176
     0
 93
-1056964608
 45
4.0
292
     0
297
     0
 46
4.0
 94
-1056964608
 47
1.0
 49
1.0
140
1.0
293
     1
141
0.0
294
     1
177
     0
142
1.0
295
     0
296
     0
143
3.75
1001
ACAD_MLEADERVER
1070
     2
  0
MLINESTYLE
  5
18
102
{ACAD_REACTORS
330
17
102
}
330
17
100
AcDbMlineStyle
  2
STANDARD
 70
     0
  3

 62
   256
 51
90.0
 52
90.0
 71
     2
 49
0.5
 62
   256
  6
BYLAYER
 49
-0.5
 62
   256
  6
BYLAYER
  0
ACDBPLACEHOLDER
  5
F
102
{ACAD_REACTORS
330
E
102
}
330
E
  0
SCALE
  5
10D
102
{ACAD_REACTORS
330
10C
102
}
330
10C
100
AcDbScale
 70
     0
300
1:1
140
1.0
141
1.0
290
     1
  0
SCALE
  5
1BE
102
{ACAD_REACTORS
330
10C
102
}
330
10C
100
AcDbScale
 70
     0
300
1:2
140
1.0
141
2.0
290
     0
  0
SCALE
  5
1BF
102
{ACAD_REACTORS
330
10C
102
}
330
10C
100
AcDbScale
 70
     0
300
1:4
140
1.0
141
4.0
290
     0
  0
SCALE
  5
1C0
102
{ACAD_REACTORS
330
10C
102
}
330
10C
100
AcDbScale
 70
     0
300
1:5
140
1.0
141
5.0
290
     0
  0
SCALE
  5
1C1
102
{ACAD_REACTORS
330
10C
102
}
330
10C
100
AcDbScale
 70
     0
300
1:8
140
1.0
141
8.0
290
     0
  0
SCALE
  5
1C2
102
{ACAD_REACTORS
330
10C
102
}
330
10C
100
AcDbScale
 70
     0
300
1:10
140
1.0
141
10.0
290
     0
  0
SCALE
  5
1C3
102
{ACAD_REACTORS
330
10C
102
}
330
10C
100
AcDbScale
 70
     0
300
1:16
140
1.0
141
16.0
290
     0
  0
SCALE
  5
1C4
102
{ACAD_REACTORS
330
10C
102
}
330
10C
100
AcDbScale
 70
     0
300
1:20
140
1.0
141
20.0
290
     0
  0
SCALE
  5
1C5
102
{ACAD_REACTORS
330
10C
102
}
330
10C
100
AcDbScale
 70
     0
300
1:30
140
1.0
141
30.0
290
     0
  0
SCALE
  5
1C6
102
{ACAD_REACTORS
330
10C
102
}
330
10C
100
AcDbScale
 70
     0
300
1:40
140
1.0
141
40.0
290
     0
  0
SCALE
  5
1C7
102
{ACAD_REACTORS
330
10C
102
}
330
10C
100
AcDbScale
 70
     0
300
1:50
140
1.0
141
50.0
290
     0
  0
SCALE
  5
1C8
102
{ACAD_REACTORS
330
10C
102
}
330
10C
100
AcDbScale
 70
     0
300
1:100
140
1.0
141
100.0
290
     0
  0
SCALE
  5
1C9
102
{ACAD_REACTORS
330
10C
102
}
330
10C
100
AcDbScale
 70
     0
300
2:1
140
2.0
141
1.0
290
     0
  0
SCALE
  5
1CA
102
{ACAD_REACTORS
330
10C
102
}
330
10C
100
AcDbScale
 70
     0
300
4:1
140
4.0
141
1.0
290
     0
  0
SCALE
  5
1CB
102
{ACAD_REACTORS
330
10C
102
}
330
10C
100
AcDbScale
 70
     0
300
8:1
140
8.0
141
1.0
290
     0
  0
SCALE
  5
1CC
102
{ACAD_REACTORS
330
10C
102
}
330
10C
100
AcDbScale
 70
     0
300
10:1
140
10.0
141
1.0
290
     0
  0
SCALE
  5
1CD
102
{ACAD_REACTORS
330
10C
102
}
330
10C
100
AcDbScale
 70
     0
300
100:1
140
100.0
141
1.0
290
     0
  0
ACDBSECTIONVIEWSTYLE
  5
21A
102
{ACAD_REACTORS
330
219
102
}
330
219
100
AcDbModelDocViewStyle
 70
     0
  3
Metric50
290
     0
100
AcDbSectionViewStyle
 70
     0
 71
     0
 90
      102
 71
     1
340
11
 40
5.0
340
0
340
0
 40
5.0
300
I, O, Q, S, X, Z
 40
10.0
 90
        0
 40
2.5
 90
        0
 71
     2
340
16
 90
       25
340
16
 90
       50
 40
5.0
 40
2.5
 40
5.0
 71
     3
340
11
 40
5.0
 90
        0
 40
15.0
 90
        1
300
%<\AcVar ViewSectionStartId>%-%<\AcVar ViewSectionEndId>% (%<\AcVar ViewScale \f "%sn">%)
 71
     4
300
ANSI31
 40
1.0
 90
        0
290
     0
290
     0
 90
        6
 40
0.0
 40
1.570796326794896
 40
0.2617993877991494
 40
1.308996938995747
 40
-0.2617993877991494
 40
1.832595714594045
  0
TABLESTYLE
  5
7F
102
{ACAD_XDICTIONARY
360
162
102
}
102
{ACAD_REACTORS
330
7E
102
}
330
7E
100
AcDbTableStyle
  3
Standard
 70
     0
 71
     0
 40
1.5
 41
1.5
280
     0
281
     0
  7
Standard
140
4.5
170
     2
 62
     0
 63
     7
283
     0
274
    -2
284
     1
 64
     0
275
    -2
285
     1
 65
     0
276
    -2
286
     1
 66
     0
277
    -2
287
     1
 67
     0
278
    -2
288
     1
 68
     0
279
    -2
289
     1
 69
     0
  7
Standard
140
6.0
170
     5
 62
     0
 63
     7
283
     0
274
    -2
284
     1
 64
     0
275
    -2
285
     1
 65
     0
276
    -2
286
     1
 66
     0
277
    -2
287
     1
 67
     0
278
    -2
288
     1
 68
     0
279
    -2
289
     1
 69
     0
  7
Standard
140
4.5
170
     5
 62
     0
 63
     7
283
     0
274
    -2
284
     1
 64
     0
275
    -2
285
     1
 65
     0
276
    -2
286
     1
 66
     0
277
    -2
287
     1
 67
     0
278
    -2
288
     1
 68
     0
279
    -2
289
     1
 69
     0
  0
VISUALSTYLE
  5
F5
102
{ACAD_XDICTIONARY
360
693
102
}
102
{ACAD_REACTORS
330
EF
102
}
330
EF
100
AcDbVisualStyle
  2

 70
     4
 71
     0
 72
     2
 73
     1
 90
        0
 40
-0.6
 41
-30.0
 62
     5
 63
     7
 74
     1
 91
        4
 64
     7
 65
   257
 75
     1
175
     1
 42
1.0
 92
        0
 66
   257
 43
1.0
 76
     1
 77
     6
 78
     2
 67
     7
 79
     5
170
     0
171
     0
290
     0
174
     0
 93
        1
 44
0.0
173
     0
291
     0
 45
0.0
1001
ACAD
1000
AcDbSavedByObjectVersion
1070
     0
  0
VISUALSTYLE
  5
F4
102
{ACAD_XDICTIONARY
360
691
102
}
102
{ACAD_REACTORS
330
EF
102
}
330
EF
100
AcDbVisualStyle
  2

 70
     7
 71
     1
 72
     0
 73
     1
 90
        0
 40
-0.6
 41
-30.0
 62
     5
 63
     7
 74
     0
 91
        4
 64
     7
 65
   257
 75
     1
175
     1
 42
1.0
 92
        8
 66
     7
 43
1.0
 76
     1
 77
     6
 78
     2
 67
     7
 79
     5
170
     0
171
     0
290
     0
174
     0
 93
        1
 44
0.0
173
     0
291
     1
 45
0.0
1001
ACAD
1000
AcDbSavedByObjectVersion
1070
     0
  0
VISUALSTYLE
  5
FB
102
{ACAD_XDICTIONARY
360
69F
102
}
102
{ACAD_REACTORS
330
EF
102
}
330
EF
100
AcDbVisualStyle
  2

 70
    12
 71
     2
 72
     2
 73
     1
 90
        0
 40
-0.6
 41
-30.0
 62
     5
 63
     7
 74
     1
 91
        4
 64
     7
 65
   257
 75
     1
175
     1
 42
1.0
 92
        8
 66
     7
 43
1.0
 76
     1
 77
     6
 78
     2
 67
     7
 79
     5
170
     0
171
     0
290
     0
174
     0
 93
        1
 44
50.0
173
     0
291
     1
 45
0.0
1001
ACAD
1000
AcDbSavedByObjectVersion
1070
     0
  0
VISUALSTYLE
  5
FF
102
{ACAD_XDICTIONARY
360
6A7
102
}
102
{ACAD_REACTORS
330
EF
102
}
330
EF
100
AcDbVisualStyle
  2

 70
    16
 71
     2
 72
     2
 73
     3
 90
        0
 40
-0.6
 41
-30.0
 62
     5
 63
     8
 74
     1
 91
        4
 64
     7
 65
   257
 75
     1
175
     1
 42
1.0
 92
        8
 66
     8
 43
1.0
 76
     1
 77
     6
 78
     2
 67
     7
 79
     5
170
     0
171
     0
290
     0
174
     0
 93
        1
 44
0.0
173
     0
291
     1
 45
0.0
1001
ACAD
1000
AcDbSavedByObjectVersion
1070
     0
  0
VISUALSTYLE
  5
F8
102
{ACAD_XDICTIONARY
360
699
102
}
102
{ACAD_REACTORS
330
EF
102
}
330
EF
100
AcDbVisualStyle
  2

 70
     9
 71
     3
 72
     2
 73
     1
 90
        0
 40
-0.6
 41
-30.0
 62
     5
 63
     7
 74
     2
 91
        2
 64
     7
 65
   257
 75
     1
175
     1
 42
40.0
 92
        8
 66
     7
 43
1.0
 76
     1
 77
     6
 78
     2
 67
     7
 79
     3
170
     0
171
     0
290
     0
174
     0
 93
        1
 44
0.0
173
     0
291
     0
 45
0.0
1001
ACAD
1000
AcDbSavedByObjectVersion
1070
     0
  0
VISUALSTYLE
  5
FA
102
{ACAD_XDICTIONARY
360
69D
102
}
102
{ACAD_REACTORS
330
EF
102
}
330
EF
100
AcDbVisualStyle
  2

 70
    11
 71
     2
 72
     2
 73
     1
 90
        0
 40
-0.6
 41
-30.0
 62
     5
 63
     7
 74
     1
 91
        4
 64
     7
 65
   257
 75
     1
175
     1
 42
1.0
 92
        8
 66
     7
 43
1.0
 76
     1
 77
     6
 78
     2
 67
     7
 79
     5
170
     0
171
     0
290
     0
174
     0
 93
        1
 44
-50.0
173
     0
291
     1
 45
0.0
1001
ACAD
1000
AcDbSavedByObjectVersion
1070
     0
  0
VISUALSTYLE
  5
1E6
102
{ACAD_XDICTIONARY
360
6AD
102
}
102
{ACAD_REACTORS
330
EF
102
}
330
EF
100
AcDbVisualStyle
  2

 70
    22
 71
     2
 72
     2
 73
     0
 90
        0
 40
-0.6
 41
-30.0
 62
     5
 63
     7
 74
     1
 91
        4
 64
     7
 65
   257
 75
     1
175
     1
 42
1.0
 92
        8
 66
     7
 43
1.0
 76
     1
 77
     6
 78
     2
 67
     7
 79
     5
170
     0
171
     0
290
     0
174
     0
 93
        1
 44
0.0
173
     0
291
     1
 45
0.0
1001
ACAD
1000
AcDbSavedByObjectVersion
1070
     0
  0
VISUALSTYLE
  5
FE
102
{ACAD_XDICTIONARY
360
6A5
102
}
102
{ACAD_REACTORS
330
EF
102
}
330
EF
100
AcDbVisualStyle
  2

 70
    15
 71
     2
 72
     2
 73
     1
 90
        0
 40
-0.6
 41
-30.0
 62
     5
 63
     7
 74
     1
 91
        4
 64
     7
 65
   257
 75
     1
175
     1
 42
1.0
 92
        8
 66
     7
 43
1.0
 76
     1
 77
     6
 78
     2
 67
     7
 79
     5
170
     0
171
     0
290
     0
174
     0
 93
        1
 44
0.0
173
     0
291
     1
 45
0.0
1001
ACAD
1000
AcDbSavedByObjectVersion
1070
     0
  0
VISUALSTYLE
  5
F0
102
{ACAD_XDICTIONARY
360
689
102
}
102
{ACAD_REACTORS
330
EF
102
}
330
EF
100
AcDbVisualStyle
  2

 70
     0
 71
     2
 72
     1
 73
     1
 90
        2
 40
-0.6
 41
30.0
 62
     5
 63
     7
 74
     0
 91
        0
 64
     7
 65
   257
 75
     1
175
     1
 42
1.0
 92
        8
 66
     7
 43
1.0
 76
     1
 77
     6
 78
     2
 67
     7
 79
     5
170
     0
171
     0
290
     0
174
     0
 93
       13
 44
0.0
173
     0
291
     1
 45
0.0
1001
ACAD
1000
AcDbSavedByObjectVersion
1070
     0
  0
VISUALSTYLE
  5
F1
102
{ACAD_XDICTIONARY
360
68B
102
}
102
{ACAD_REACTORS
330
EF
102
}
330
EF
100
AcDbVisualStyle
  2

 70
     1
 71
     2
 72
     1
 73
     1
 90
        2
 40
-0.6
 41
30.0
 62
     5
 63
     7
 74
     1
 91
        0
 64
     7
 65
   257
 75
     1
175
     1
 42
1.0
 92
        0
 66
   257
 43
1.0
 76
     1
 77
     6
 78
     2
 67
     7
 79
     5
170
     0
171
     0
290
     0
174
     0
 93
       13
 44
0.0
173
     0
291
     1
 45
0.0
1001
ACAD
1000
AcDbSavedByObjectVersion
1070
     0
  0
VISUALSTYLE
  5
F2
102
{ACAD_XDICTIONARY
360
68D
102
}
102
{ACAD_REACTORS
330
EF
102
}
330
EF
100
AcDbVisualStyle
  2

 70
     2
 71
     2
 72
     2
 73
     1
 90
        2
 40
-0.6
 41
30.0
 62
     5
 63
     7
 74
     0
 91
        0
 64
     7
 65
   257
 75
     1
175
     1
 42
1.0
 92
        0
 66
     7
 43
1.0
 76
     1
 77
     6
 78
     2
 67
     7
 79
     5
170
     0
171
     0
290
     0
174
     0
 93
       13
 44
0.0
173
     0
291
     1
 45
0.0
1001
ACAD
1000
AcDbSavedByObjectVersion
1070
     0
  0
VISUALSTYLE
  5
F3
102
{ACAD_XDICTIONARY
360
68F
102
}
102
{ACAD_REACTORS
330
EF
102
}
330
EF
100
AcDbVisualStyle
  2

 70
     3
 71
     2
 72
     2
 73
     1
 90
        2
 40
-0.6
 41
30.0
 62
     5
 63
     7
 74
     1
 91
        0
 64
     7
 65
   257
 75
     1
175
     1
 42
1.0
 92
        0
 66
   257
 43
1.0
 76
     1
 77
     6
 78
     2
 67
     7
 79
     5
170
     0
171
     0
290
     0
174
     0
 93
       13
 44
0.0
173
     0
291
     1
 45
0.0
1001
ACAD
1000
AcDbSavedByObjectVersion
1070
     0
  0
VISUALSTYLE
  5
F7
102
{ACAD_XDICTIONARY
360
697
102
}
102
{ACAD_REACTORS
330
EF
102
}
330
EF
100
AcDbVisualStyle
  2

 70
     6
 71
     1
 72
     2
 73
     2
 90
        0
 40
-0.6
 41
-30.0
 62
     5
 63
     7
 74
     2
 91
        2
 64
     7
 65
   257
 75
     2
175
     1
 42
40.0
 92
        0
 66
   257
 43
1.0
 76
     1
 77
     6
 78
     2
 67
     7
 79
     3
170
     0
171
     0
290
     0
174
     0
 93
        1
 44
0.0
173
     0
291
     0
 45
0.0
1001
ACAD
1000
AcDbSavedByObjectVersion
1070
     0
  0
VISUALSTYLE
  5
1E4
102
{ACAD_XDICTIONARY
360
6A9
102
}
102
{ACAD_REACTORS
330
EF
102
}
330
EF
100
AcDbVisualStyle
  2

 70
    20
 71
     2
 72
     2
 73
     0
 90
        0
 40
-0.6
 41
-30.0
 62
     5
 63
     7
 74
     1
 91
        4
 64
     7
 65
   257
 75
     1
175
     1
 42
1.0
 92
       10
 66
     7
 43
1.0
 76
     1
 77
     6
 78
     2
 67
     7
 79
     5
170
     0
171
     0
290
     0
174
     0
 93
        1
 44
0.0
173
     0
291
     1
 45
0.0
1001
ACAD
1000
AcDbSavedByObjectVersion
1070
     0
  0
VISUALSTYLE
  5
FD
102
{ACAD_XDICTIONARY
360
6A3
102
}
102
{ACAD_REACTORS
330
EF
102
}
330
EF
100
AcDbVisualStyle
  2

 70
    14
 71
     2
 72
     2
 73
     1
 90
        0
 40
-0.6
 41
-30.0
 62
     5
 63
     7
 74
     1
 91
        4
 64
     7
 65
   257
 75
     7
175
     7
 42
1.0
 92
        8
 66
     7
 43
1.0
 76
     1
 77
     6
 78
     2
 67
     7
 79
     5
170
     0
171
     0
290
     0
174
     0
 93
        1
 44
0.0
173
     0
291
     1
 45
0.0
1001
ACAD
1000
AcDbSavedByObjectVersion
1070
     0
  0
VISUALSTYLE
  5
1E5
102
{ACAD_XDICTIONARY
360
6AB
102
}
102
{ACAD_REACTORS
330
EF
102
}
330
EF
100
AcDbVisualStyle
  2

 70
    21
 71
     2
 72
     2
 73
     0
 90
        0
 40
-0.6
 41
-30.0
 62
     5
 63
     7
 74
     1
 91
        4
 64
     7
 65
   257
 75
     1
175
     1
 42
1.0
 92
        9
 66
     7
 43
1.0
 76
     1
 77
     6
 78
     2
 67
     7
 79
     5
170
     0
171
     0
290
     0
174
     0
 93
        1
 44
0.0
173
     0
291
     1
 45
0.0
1001
ACAD
1000
AcDbSavedByObjectVersion
1070
     0
  0
VISUALSTYLE
  5
F9
102
{ACAD_XDICTIONARY
360
69B
102
}
102
{ACAD_REACTORS
330
EF
102
}
330
EF
100
AcDbVisualStyle
  2

 70
     8
 71
     2
 72
     3
 73
     0
 90
        2
 40
-0.6
 41
30.0
 62
     5
 63
     7
 74
     0
 91
        0
 64
     7
 65
   257
 75
     1
175
     1
 42
1.0
 92
        8
 66
   257
 43
1.0
 76
     1
 77
     6
 78
     2
 67
     7
 79
     3
170
     0
171
     0
290
     0
174
     0
 93
       13
 44
0.0
173
     0
291
     0
 45
0.0
1001
ACAD
1000
AcDbSavedByObjectVersion
1070
     0
  0
VISUALSTYLE
  5
1F3
102
{ACAD_XDICTIONARY
360
6B7
102
}
102
{ACAD_REACTORS
330
EF
102
}
330
EF
100
AcDbVisualStyle
  2

 70
    27
 71
     2
 72
     2
 73
     1
 90
        2
 40
-0.6
 41
30.0
 62
     5
 63
     7
 74
     0
 91
        4
 64
     7
 65
   257
 75
     1
175
     1
 42
1.0
 92
        8
 66
   257
 43
1.0
 76
     1
 77
     6
 78
     2
 67
     8
 79
     3
170
     0
171
     0
290
     0
174
     0
 93
        5
 44
0.0
173
     0
291
     0
 45
0.0
1001
ACAD
1000
AcDbSavedByObjectVersion
1070
     0
  0
VISUALSTYLE
  5
1F2
102
{ACAD_XDICTIONARY
360
6B5
102
}
102
{ACAD_REACTORS
330
EF
102
}
330
EF
100
AcDbVisualStyle
  2

 70
    26
 71
     2
 72
     2
 73
     1
 90
        2
 40
-0.6
 41
30.0
 62
     5
 63
     7
 74
     1
 91
       10
 64
     7
 65
   257
 75
     2
175
     1
 42
1.0
 92
        8
 66
   257
 43
1.0
 76
     1
 77
     6
 78
     2
 67
     7
 79
     3
170
     0
171
     0
290
     0
174
     0
 93
        5
 44
0.0
173
     0
291
     0
 45
0.0
1001
ACAD
1000
AcDbSavedByObjectVersion
1070
     0
  0
VISUALSTYLE
  5
1EF
102
{ACAD_XDICTIONARY
360
6AF
102
}
102
{ACAD_REACTORS
330
EF
102
}
330
EF
100
AcDbVisualStyle
  2

 70
    23
 71
     2
 72
     2
 73
     3
 90
        0
 40
-0.6
 41
-30.0
 62
     5
 63
     7
 74
     2
 91
        2
 64
     7
 65
     7
 75
     1
175
     1
 42
40.0
 92
        8
 66
     7
 43
1.0
 76
     1
 77
     6
 78
     2
 67
     7
 79
     3
170
     0
171
     0
290
     0
174
     0
 93
        1
 44
0.0
173
     0
291
     0
 45
0.0
1001
ACAD
1000
AcDbSavedByObjectVersion
1070
     0
  0
VISUALSTYLE
  5
1F0
102
{ACAD_XDICTIONARY
360
6B1
102
}
102
{ACAD_REACTORS
330
EF
102
}
330
EF
100
AcDbVisualStyle
  2

 70
    24
 71
     1
 72
     2
 73
     2
 90
        0
 40
-0.6
 41
-30.0
 62
     5
 63
     7
 74
     2
 91
        2
 64
     7
 65
     7
 75
     1
175
     1
 42
40.0
 92
       11
 66
     7
 43
1.0
 76
     1
 77
     6
 78
     2
 67
     7
 79
     6
170
     0
171
     0
290
     0
174
     0
 93
        1
 44
0.0
173
     0
291
     0
 45
0.0
1001
ACAD
1000
AcDbSavedByObjectVersion
1070
     0
  0
VISUALSTYLE
  5
FC
102
{ACAD_XDICTIONARY
360
6A1
102
}
102
{ACAD_REACTORS
330
EF
102
}
330
EF
100
AcDbVisualStyle
  2

 70
    13
 71
     2
 72
     2
 73
     1
 90
        0
 40
-0.6
 41
-30.0
 62
     5
 63
     7
 74
     1
 91
        4
 64
     7
 65
   257
 75
     1
175
     1
 42
1.0
 92
       12
 66
     7
 43
1.0
 76
     1
 77
     6
 78
     2
 67
     7
 79
     5
170
     0
171
     0
290
     0
174
     0
 93
        1
 44
0.0
173
     0
291
     1
 45
0.0
1001
ACAD
1000
AcDbSavedByObjectVersion
1070
     0
  0
VISUALSTYLE
  5
F6
102
{ACAD_XDICTIONARY
360
695
102
}
102
{ACAD_REACTORS
330
EF
102
}
330
EF
100
AcDbVisualStyle
  2

 70
     5
 71
     0
 72
     2
 73
     0
 90
        0
 40
-0.6
 41
-30.0
 62
     5
 63
     7
 74
     1
 91
        4
 64
     7
 65
   257
 75
     1
175
     1
 42
1.0
 92
        0
 66
   257
 43
1.0
 76
     1
 77
     6
 78
     2
 67
     7
 79
     3
170
     0
171
     0
290
     0
174
     0
 93
        1
 44
0.0
173
     0
291
     0
 45
0.0
1001
ACAD
1000
AcDbSavedByObjectVersion
1070
     0
  0
VISUALSTYLE
  5
1F1
102
{ACAD_XDICTIONARY
360
6B3
102
}
102
{ACAD_REACTORS
330
EF
102
}
330
EF
100
AcDbVisualStyle
  2

 70
    25
 71
     2
 72
     2
 73
     1
 90
        1
 40
0.5
 41
-30.0
 62
     5
 63
     7
 74
     1
 91
        0
 64
     7
 65
   257
 75
     1
175
     1
 42
1.0
 92
        8
 66
     7
 43
1.0
 76
     1
 77
     6
 78
     2
 67
     7
 79
     3
170
     0
171
     0
290
     0
174
     0
 93
       13
 44
0.0
173
     0
291
     0
 45
0.0
1001
ACAD
1000
AcDbSavedByObjectVersion
1070
     0
  0
DICTIONARYVAR
  5
146
102
{ACAD_REACTORS
330
5E
102
}
330
5E
100
DictionaryVariables
280
     0
  1
1:1
  0
DICTIONARYVAR
  5
145
102
{ACAD_REACTORS
330
5E
102
}
330
5E
100
DictionaryVariables
280
     0
  1
STANDARD
  0
DICTIONARYVAR
  5
84
102
{ACAD_REACTORS
330
5E
102
}
330
5E
100
DictionaryVariables
280
     0
  1
STANDARD
  0
DICTIONARYVAR
  5
227
102
{ACAD_REACTORS
330
5E
102
}
330
5E
100
DictionaryVariables
280
     0
  1
Metric50
  0
DICTIONARYVAR
  5
228
102
{ACAD_REACTORS
330
5E
102
}
330
5E
100
DictionaryVariables
280
     0
  1
Metric50
  0
DICTIONARYVAR
  5
5F
102
{ACAD_REACTORS
330
5E
102
}
330
5E
100
DictionaryVariables
280
     0
  1
2
  0
DICTIONARYVAR
  5
63
102
{ACAD_REACTORS
330
5E
102
}
330
5E
100
DictionaryVariables
280
     0
  1
1
  0
DICTIONARYVAR
  5
2E0
102
{ACAD_REACTORS
330
5E
102
}
330
5E
100
DictionaryVariables
280
     0
  1
0
  0
DICTIONARYVAR
  5
1AE
102
{ACAD_REACTORS
330
5E
102
}
330
5E
100
DictionaryVariables
280
     0
  1
0
  0
DICTIONARYVAR
  5
1AF
102
{ACAD_REACTORS
330
5E
102
}
330
5E
100
DictionaryVariables
280
     0
  1
0
  0
DICTIONARYVAR
  5
2DE
102
{ACAD_REACTORS
330
5E
102
}
330
5E
100
DictionaryVariables
280
     0
  1
2
  0
DICTIONARYVAR
  5
2DD
102
{ACAD_REACTORS
330
5E
102
}
330
5E
100
DictionaryVariables
280
     0
  1
1
  0
DICTIONARYVAR
  5
407
102
{ACAD_REACTORS
330
5E
102
}
330
5E
100
DictionaryVariables
280
     0
  1
80.000000
  0
DICTIONARYVAR
  5
406
102
{ACAD_REACTORS
330
5E
102
}
330
5E
100
DictionaryVariables
280
     0
  1
5.000000
  0
DICTIONARYVAR
  5
2DF
102
{ACAD_REACTORS
330
5E
102
}
330
5E
100
DictionaryVariables
280
     0
  1
127
  0
DICTIONARYVAR
  5
408
102
{ACAD_REACTORS
330
5E
102
}
330
5E
100
DictionaryVariables
280
     0
  1
2
  0
DICTIONARY
  5
685
330
D3
100
AcDbDictionary
280
     1
281
     1
  3
ACAD_XREC_ROUNDTRIP
360
686
  0
DICTIONARY
  5
687
330
D7
100
AcDbDictionary
280
     1
281
     1
  3
ACAD_XREC_ROUNDTRIP
360
688
  0
DICTIONARY
  5
682
330
22
100
AcDbDictionary
280
     1
281
     1
  3
ACAD_XREC_ROUNDTRIP
360
683
  0
DICTIONARY
  5
1F9
330
ED
100
AcDbDictionary
280
     1
281
     1
  3
ACAD_XREC_ROUNDTRIP
360
33A
  3
FBXASSET
360
1FA
  0
DICTIONARY
  5
1F7
330
EC
100
AcDbDictionary
280
     1
281
     1
  3
ACAD_XREC_ROUNDTRIP
360
339
  3
FBXASSET
360
1F8
  0
DICTIONARY
  5
173
330
EE
100
AcDbDictionary
280
     1
281
     1
  3
ACAD_XREC_ROUNDTRIP
360
33B
  3
BUMPTILE
360
175
  3
DIFFUSETILE
360
174
  3
FBXASSET
360
1FB
  3
OPACITYTILE
360
176
  3
REFLECTIONTILE
360
177
  0
DICTIONARY
  5
162
330
7F
100
AcDbDictionary
280
     1
281
     1
  3
ACAD_ROUNDTRIP_2008_TABLESTYLE_CELLSTYLEMAP
360
67F
  3
ACAD_XREC_ROUNDTRIP
360
684
  0
DICTIONARY
  5
693
330
F5
100
AcDbDictionary
280
     1
281
     1
  3
ACAD_XREC_ROUNDTRIP
360
694
  0
DICTIONARY
  5
691
330
F4
100
AcDbDictionary
280
     1
281
     1
  3
ACAD_XREC_ROUNDTRIP
360
692
  0
DICTIONARY
  5
69F
330
FB
100
AcDbDictionary
280
     1
281
     1
  3
ACAD_XREC_ROUNDTRIP
360
6A0
  0
DICTIONARY
  5
6A7
330
FF
100
AcDbDictionary
280
     1
281
     1
  3
ACAD_XREC_ROUNDTRIP
360
6A8
  0
DICTIONARY
  5
699
330
F8
100
AcDbDictionary
280
     1
281
     1
  3
ACAD_XREC_ROUNDTRIP
360
69A
  0
DICTIONARY
  5
69D
330
FA
100
AcDbDictionary
280
     1
281
     1
  3
ACAD_XREC_ROUNDTRIP
360
69E
  0
DICTIONARY
  5
6AD
330
1E6
100
AcDbDictionary
280
     1
281
     1
  3
ACAD_XREC_ROUNDTRIP
360
6AE
  0
DICTIONARY
  5
6A5
330
FE
100
AcDbDictionary
280
     1
281
     1
  3
ACAD_XREC_ROUNDTRIP
360
6A6
  0
DICTIONARY
  5
689
330
F0
100
AcDbDictionary
280
     1
281
     1
  3
ACAD_XREC_ROUNDTRIP
360
68A
  0
DICTIONARY
  5
68B
330
F1
100
AcDbDictionary
280
     1
281
     1
  3
ACAD_XREC_ROUNDTRIP
360
68C
  0
DICTIONARY
  5
68D
330
F2
100
AcDbDictionary
280
     1
281
     1
  3
ACAD_XREC_ROUNDTRIP
360
68E
  0
DICTIONARY
  5
68F
330
F3
100
AcDbDictionary
280
     1
281
     1
  3
ACAD_XREC_ROUNDTRIP
360
690
  0
DICTIONARY
  5
697
330
F7
100
AcDbDictionary
280
     1
281
     1
  3
ACAD_XREC_ROUNDTRIP
360
698
  0
DICTIONARY
  5
6A9
330
1E4
100
AcDbDictionary
280
     1
281
     1
  3
ACAD_XREC_ROUNDTRIP
360
6AA
  0
DICTIONARY
  5
6A3
330
FD
100
AcDbDictionary
280
     1
281
     1
  3
ACAD_XREC_ROUNDTRIP
360
6A4
  0
DICTIONARY
  5
6AB
330
1E5
100
AcDbDictionary
280
     1
281
     1
  3
ACAD_XREC_ROUNDTRIP
360
6AC
  0
DICTIONARY
  5
69B
330
F9
100
AcDbDictionary
280
     1
281
     1
  3
ACAD_XREC_ROUNDTRIP
360
69C
  0
DICTIONARY
  5
6B7
330
1F3
100
AcDbDictionary
280
     1
281
     1
  3
ACAD_XREC_ROUNDTRIP
360
6B8
  0
DICTIONARY
  5
6B5
330
1F2
100
AcDbDictionary
280
     1
281
     1
  3
ACAD_XREC_ROUNDTRIP
360
6B6
  0
DICTIONARY
  5
6AF
330
1EF
100
AcDbDictionary
280
     1
281
     1
  3
ACAD_XREC_ROUNDTRIP
360
6B0
  0
DICTIONARY
  5
6B1
330
1F0
100
AcDbDictionary
280
     1
281
     1
  3
ACAD_XREC_ROUNDTRIP
360
6B2
  0
DICTIONARY
  5
6A1
330
FC
100
AcDbDictionary
280
     1
281
     1
  3
ACAD_XREC_ROUNDTRIP
360
6A2
  0
DICTIONARY
  5
695
330
F6
100
AcDbDictionary
280
     1
281
     1
  3
ACAD_XREC_ROUNDTRIP
360
696
  0
DICTIONARY
  5
6B3
330
1F1
100
AcDbDictionary
280
     1
281
     1
  3
ACAD_XREC_ROUNDTRIP
360
6B4
  0
XRECORD
  5
686
102
{ACAD_REACTORS
330
685
102
}
330
685
100
AcDbXrecord
280
     1
102
SHADEPLOT
 70
     0
102
SHADEPLOTRESLEVEL
 70
     2
102
SHADEPLOTCUSTOMDPI
 70
   300
  0
XRECORD
  5
688
102
{ACAD_REACTORS
330
687
102
}
330
687
100
AcDbXrecord
280
     1
102
SHADEPLOT
 70
     0
102
SHADEPLOTRESLEVEL
 70
     2
102
SHADEPLOTCUSTOMDPI
 70
   300
  0
XRECORD
  5
683
102
{ACAD_REACTORS
330
682
102
}
330
682
100
AcDbXrecord
280
     1
102
SHADEPLOT
 70
     0
102
SHADEPLOTRESLEVEL
 70
     2
102
SHADEPLOTCUSTOMDPI
 70
   300
  0
XRECORD
  5
33A
102
{ACAD_REACTORS
330
1F9
102
}
330
1F9
100
AcDbXrecord
280
     1
102
MATERIAL
148
0.0
149
0.0
149
0.0
 93
        0
 94
      127
282
     0
 72
     1
 77
     1
171
     1
175
     1
179
     1
273
     0
  0
XRECORD
  5
1FA
102
{ACAD_REACTORS
330
1F9
102
}
330
1F9
100
AcDbXrecord
280
     1
 70
     1
 90
429727718
  1
D62C5603-E3A1-4AEA-B7FB-FE5D8D0755AF
310
504B03040A0000080000CC70623B3DEE336E79000000790000001B0000006175746F6465736B2D64657369676E2D7061636B6167652E786D6C3C3F786D6C2076657273696F6E3D22312E302220656E636F64696E673D227574662D3822203F3E3C666F726D6174733E3C666F726D61743E687474703A2F2F736368656D612E
310
6175746F6465736B2E636F6D2F64657369676E2D7061636B6167652F323030393C2F666F726D61743E3C2F666F726D6174733E504B0304140006080800CC70623BD486FD9CA0000000F4000000130000005B436F6E74656E745F54797065735D2E786D6C7D8EC10E82300C865F65E91D8A1E8C310C0EEA1BF002731658846E
310
D98AC1B77784ABF1D8FE5FBFBF75BBCE937A534CCEB38643598122B6FEE978D0B0485F9C41B54DDD7D022595594E1A469170414C76A4D9A4D207E29CF43ECE46F218070CC6BECC4078ACAA135ACF422C856C0E68EA1BF5669944DDD7BCDE7B1F8E415D77AECB980613C2E4AC91FC167A2B244592486606FC29C8FD7F045B9A
310
EF7053A7E60B504B0304140006080800CC70623B853B8169EB0000007C01000008000000636F72652E786D6C8D90416EC3201045AF62CDB6C206821CC7C244919D9CA01740401C94182C03558F5F9C3852BBEB6A467FFE9B197D7EFC9E1EC5975982F5AE035262288C535E5B377690E21535501C055FBC8FBF6C503839990E
310
5619041F179FE64D52DE45E362569DD7661365082642A11EB9E920A89B99642953CC8E702F67A9EE7234257977194EC9EAE275C4EABCCF5EAD5940D4AC6F0E35A568B8F43562CD7046CD199FD07E60174276A7BE677B5EADB0E0D14EEFFB6A31321A0D82627C4084204C3F096B71DD52F6819B16635EADF63F509AF53FA164
310
5DDCD1EDDD17164090FCC8732078B56691CB33A85CD7DCC40F504B0304140006080800CC70623B55019EA25F0000007C00000007000000636E782E786D6C4DCB3B0E80201045D1AD90E915ED2CF8AC45050C11660C8261F98AB1B07AC9C97D42D718D865D3E909258CFD00CCE24AC6E326A164D74DC0B4128928FF32603847
310
2BA13128B1252AC747C6BAB984FC68F0B87FE8960A5C09FE86CFB69FBA01504B0304140006080800CC70623BDBABAAF470010000D40300000C0000006662782F636F72652E786D6CC553D16E823014FD95A6AF4B694182CC941A83FA05FB810A9511A125A5257EFE2E82712ECEB8A7F100CD39F7F69E734AF9FADC366850B6
310
AF8DCE7018308C942E4C59EB2AC3DE1D498AD15A706B8CFB56869196ADCAF00863C12B6B7C374385D14E6907A836A59A41D9F7CA615434B0C8705F7CAA5606D23BA8E84F41278B93AC54100640439DE0BDB320004D43C63716C7C399D30917DCFBBA9CD9BA8469F5B156168B24CED3F7248AC8769F27244EB73B92EED8862C
310
B7F13E0C179B3C8F979C8ECD82BBBABDAA2BAC924E9558448CBD9330242CFA08E3154B5651FCC6D215639C8EE5774DBE2B5F6CF2B5768B68963BB5F5588420E442FC700B1139D4CB01F450C1E918227C2E09DF070D8140C84E1E9AAB8F1340832A9CB13130A5F1376A908D57309505ECF2A0DF179C4E9D30F5B239B87E3823
310
7A79C6F31DE1A8A5AEC08474B03C7837EAE4938639B44E5932B833D2C6B6B279CDC613877FA26EE21F4A2A4C63EC7F29A2F301D1F9F7A0E37D145F504B0304140006080800CC70623B9C113CC27E0000009D0000000B0000006662782F636E782E786D6C4DCCDF0A83201C86E15B91DFB94BFB330DD428C8FB886521330DA7
310
6397BF1A1DECE883878F57749FCDA1B7892F1BBC047A23808C7F84D9FA55424E0BE6803A256208E9EF06C84F9B91703228B1C690F78B66B34CD9A5439DF5CF0BFBF65E35BCA1B8D6A5C6F540381E886698B5741C695F9503EBA150A2F8958E3DC3EA0B504B0304140006080800CC70623B7DF2F77C2A010000120200003100
310
00006662782F41393633353835312D344632462D344230382D423046372D3739314545314133324237412F636F72652E786D6C8D51DB8EC22014FC15C2939B0D2DB4B45643319AE817EC0F6041255A68B86CFCFC856D4D76DF7CE190393373060EDB3DC707F856CE6B6B7A480A0C81328395DA5C7B18C3057510EC3873D686
310
3F34088C18550F330C39BB3A1BA7051AAC09CA84841A2BD5020AEF55806078A44B0FFD7053A328440C89E1EFC52486BBB8AA8214A99D789CF9E05200300FC927E4FB4D5B375D43103D5527440FB843077C5AA3F5861C8F645F5787F59E95B390B318B55CE45AA638FAA2957BD7248B390B7A7CC51F9C124149C82B8C378810
310
84AB2F42B7B8DD56F413775B8C5999E9FF4471926F8AA236A1AE96B8B3CC434E5839373893369E1FAF30EA395917409EB7F26AF8801C171837A4A6AC9C89E9F9C9B1A58BA30FD6A5EF5DDDCF894B9AD9B6A59C957943A9FCAE2FD5BC4DFE03504B0304140006080800CC70623BAD7543B64E01000033030000300000006662
310
782F41393633353835312D344632462D344230382D423046372D3739314545314133324237412F636E782E786D6CD593CD6EC32010845F0571AD6CE3D48AD20813A9873E410FBD12D82434182C7EAAE6EDBB2424CD25871E7B41D6EC30B3FA84F9E67BB2E40B4234DE8DB46F1925E094D7C6ED479AD3AE5951B2113C789FEE
310
6C943839C1488B4C05DF079FE72A69D8C96C13AAD6B8631503449F83828872B949AC57D26200B826A308D316B4064D6E46FCDA41C05550DC9E483A00797BFD207EFB092A45DE9514C1BBD22178396BD39D891265658C238DEA00936C654E5E433CB65A26D9F6EDB5EBC14EBF49A45CB856E66048291F6939A9A81BB5C89177
310
38143CA680F4AA299D66A042CEB3354A2684DC9D8D178FE0D9B8B41CAAD720F880EE7EF93C0C18769E099ECC04D5A102C8049A8A05632F4DDF376CF1DE0F6BB65C2F8627B65A33C6BB62177CEBBDAD973006829F89F22E814B54F4BC2BE347F8AA8F681390B50FA73F804400B5F542E796F19FF974E7F78DB802FE05E20750
310
4B0304140006080800CC70623BE75B7789680500003C100000340000006662782F41393633353835312D344632462D344230382D423046372D3739314545314133324237412F6F626A656374732E786D6CAD575B8F9B3818FD2B887D06C22499CB8AA1CA655245D5B455A356FB305264C061D8018C6C3393D95FBFC7600890
310
A4CD5EF210B0B1BFEBF98E3F7B1FF6596ABC522E1296DF9BAE3D320D9A872C4AF2F8DE2CE5CEBA358D0FBEC719939D65A691938CDE9B6ADAF4BD98B3B2D05311DD91329583D9D5FC0F438434A7A611A644887B5384CF34233629258BA878B12322891DEFF6B66BD70BFB62634E8AE781D082709A4B588AF91C528CDA28B73F
310
1C998EEF39EABBEFA97FBD6A7C7E9553F9D3D79FE442923C3C523610337627CB87ABE99D359D4CC6D6E4FACAB5E6ABF9D2726FC6A3C5F56271377BB88362213924694B38DD99FE47C48627A1E7D49F5A8BB5E1A74C0A599ED3B0F21F1E56366B89112D681E218F0915D0D6F17AD41FBA2A369DCF6335D62ABBD39779D5DDD1
310
11D4D8DE3CBB96B2E04FB8202E41051754A1AA8E8F76B4C6DFE810B580B1547F4B84911149794252234D024EF8BBE963A95AE27B3D310A9D5C215C7960FAEE415ED75694C6AFB17BCACA5D99A60A9AA65F217B0BFC53292ACB92BF283FAD0D3621576592CB5BED907C2FA8E9DF794E35E97BEA31BED21FEB401ABB94C44839
310
DCACBF0E1C5DA8DA5B2F4DFFD32AD86F543D9E565E7056502E157C00AD2671CD534549AB752FCA9CDA00677A313F04E51B22FF19E57B300579E3C97EB29F682D92935CEC18CF901B7B54FD8C51F362B56FC72FE0B3C1EAE335EDCCBF5AEC39ADB17DC238973F804BA5E6F6BFE7AF1FB32E523BE9F3BD571418E3631DCA4D48
310
5250CF639223210A9446CA30052EDF057BD35F8329C1ECD84552BF0DC8D18BE7BCE23BFE6BD960AB4A7DE79923A103BEBD80F911CBAA2C60DB19B01CF164A5583B772EE6D3FFA56666CBCDA74DC97724A48F9A58967497E489C4D979006FD7A05E227A1EBDD0F737C623387A9C844D3709995625106D157315F8B8392CD4E0
310
A0B9A720C4BE9829CEF37EA1E13111214D53925356365ADA634861B52519DD27A00AEB808EAF0628E6F435519D446F45CF2C9CF5214F0A15B2F6D06B79DA3EE3CBF7F56780D2F4E7EF73A0F5E5B02A38D07DC852C6B7C1FBB6664213E0C39E3EBA7FF4E1AD23EA2829407C85E586727488B751B2DB9502BC7B228A3FD68B6E
310
A65A22397E690AA8D158D7E404EC8CDA235CC3B7D1898680131CEC2CDF2638C65196279577750F15884AEE19F94199155B92B13297978469D4F8D358DF0AEF7631E28DC8F0D9F437D5D39A83B2231A1D52D543813A824EF8D44BCFF2FA6A31BD1E8DAD87F1CCB526B3879935BF59CDADD5C37479BB1CDD4CA7B3556B516589
310
EF352754B706114D9C885EC9131DE6EFEB43D99AFE2391C2F958179413D7CFEF6B1B6DB1E7600F00DE6E5C67454A339A4BA2E0FBA85ED26F045D454F463DBFCE484C2F90F2E5E3666003662ED8F755951A7D1BECD5B30B550B2785C8E7320B7292A4838DDA71BBC863ED7613CAF659337A3354231D4FF4A182A54904C2898C
310
98B28C4AD0CE056CCF332A80986E571EE9DBC305BB5FEB7E509220A58D25CF042D712A806AC0AD0C657FDEF80D2D9CEAA2EE4D1C76F60BFE74219A06527D6F82DF6412526107381E55E353090704D085B52408A8913C4ED159D79BDA71BB4BC506F4831350EB6F975CD22D69BF7AC49B91A2C0A9DDA3D5CA36AD20FC478E37
310
E61844E2352865EBCB61A275A65283CAAA9DD27703B4102F5AF51EF5F573B75CBB5AD38BC845F7A49F82A0966A49C2E3EA5EA0ECD326CD965F1DB402C6FA8B51A4658C5C5E2EC9E214602E55810345408596591009A82E7E7FFACA19EEA299B14A0081A705CB3296EBC14CDF658DCD336EA6D1136881AAEB87B81AB9EE53D5
310
F5EB8BC8362082DA24122F98680A4E7930C01A0079749CEA14382A0783E5EBA5A10F8C098456A03D6A4AEB6BB881E2513747552A5DB22C7EDAF83BD5528081A365F7FF06504B0304140006080000CC70623B000000000000000000000000350000006662782F41393633353835312D344632462D344230382D423046372D37
310
39314545314133324237412F76657274696365732E62696E504B0304140006080800CC70623BF270F1330600000004000000360000006662782F41393633353835312D344632462D344230382D423046372D3739314545314133324237412F747269616E676C65732E62696E636660600000504B0304140006080000CC7062
310
3B000000000000000000000000370000006662782F41393633353835312D344632462D344230382D423046372D3739314545314133324237412F617474726962757465732E62696E504B0304140006080800CC70623B08DA0BD19000000041010000360000006662782F41393633353835312D344632462D344230382D4230
310
46372D3739314545314133324237412F6469726563746F72792E786D6C858F410AC3201045AF22B36F53E9A60B35CBEEBAE80D244E44489C6234F4F835464A48035D0DF398FF9F8AF63D0E6CC63039F212F8F9020C7D47C6792B21C5FE7403D62A1188E2E60C98D7234A5830286103A55745067B9D86B8A3CF9C7F90C11DE6
310
07FB144396D7B6A82D282E9A152AD114D5EF2CB866EEE831B8EEA07A7BB5A8D7D61A2BAAEB7FD5F70921FF497D00504B0304140006080800CC70623BEDD1DC58FD000000A00100003B0000006662782F41393633353835312D344632462D344230382D423046372D3739314545314133324237412F7265736F75726365732F
310
636F72652E786D6C8D504B6E833010BD0A9A6D65B00922041947112427E8052C33A156828DFCA97AFC9A40A576D7CDCCE87D344F8F9FBFE667F689CE6B6B3A6039850C8DB2A336530731DC4903D95970676DF82583CCC8193B5861107C72362E3BA4AC096842428D1D7107A5F7182053CF7474E0D507CE32973124857FE48B
310
540F3961CEF244279DE03EB81420DB9EAC1384436FA353E879B1B182C7A8C75DA3C7F453DF353A1075D537A7BA6464B8F535A99AE14A9A2BBD90E350DD183B5CFABE3AF262350B1EF4FC9351399401471025A527C218A1E53BAB5A5AB765F5469B96525EACF23FA6B88CFF34456DC2A1DCE36E360F82A5202F42F062ED2BAD
310
579969AFDD8A6F504B010214000A0000080000CC70623B3DEE336E79000000790000001B00000000000000000000000000000000006175746F6465736B2D64657369676E2D7061636B6167652E786D6C504B01021400140006080800CC70623BD486FD9CA0000000F40000001300000000000000000000000000B20000005B
310
436F6E74656E745F54797065735D2E786D6C504B01021400140006080800CC70623B853B8169EB0000007C010000080000000000000000000000000083010000636F72652E786D6C504B01021400140006080800CC70623B55019EA25F0000007C000000070000000000000000000000000094020000636E782E786D6C504B
310
01021400140006080800CC70623BDBABAAF470010000D40300000C00000000000000000000000000180300006662782F636F72652E786D6C504B01021400140006080800CC70623B9C113CC27E0000009D0000000B00000000000000000000000000B20400006662782F636E782E786D6C504B01021400140006080800CC70
310
623B7DF2F77C2A010000120200003100000000000000000000000000590500006662782F41393633353835312D344632462D344230382D423046372D3739314545314133324237412F636F72652E786D6C504B01021400140006080800CC70623BAD7543B64E010000330300003000000000000000000000000000D2060000
310
6662782F41393633353835312D344632462D344230382D423046372D3739314545314133324237412F636E782E786D6C504B01021400140006080800CC70623BE75B7789680500003C10000034000000000000000000000000006E0800006662782F41393633353835312D344632462D344230382D423046372D3739314545
310
314133324237412F6F626A656374732E786D6C504B01021400140006080000CC70623B0000000000000000000000003500000000000000000000000000280E00006662782F41393633353835312D344632462D344230382D423046372D3739314545314133324237412F76657274696365732E62696E504B01021400140006
310
080800CC70623BF270F133060000000400000036000000000000000000000000007B0E00006662782F41393633353835312D344632462D344230382D423046372D3739314545314133324237412F747269616E676C65732E62696E504B01021400140006080000CC70623B0000000000000000000000003700000000000000
310
000000000000D50E00006662782F41393633353835312D344632462D344230382D423046372D3739314545314133324237412F617474726962757465732E62696E504B01021400140006080800CC70623B08DA0BD1900000004101000036000000000000000000000000002A0F00006662782F41393633353835312D344632
310
462D344230382D423046372D3739314545314133324237412F6469726563746F72792E786D6C504B01021400140006080800CC70623BEDD1DC58FD000000A00100003B000000000000000000000000000E1000006662782F41393633353835312D344632462D344230382D423046372D3739314545314133324237412F7265
310
736F75726365732F636F72652E786D6C504B0506000000000E000E0080040000641100000000
  0
XRECORD
  5
339
102
{ACAD_REACTORS
330
1F7
102
}
330
1F7
100
AcDbXrecord
280
     1
102
MATERIAL
148
0.0
149
0.0
149
0.0
 93
        0
 94
      127
282
     0
 72
     1
 77
     1
171
     1
175
     1
179
     1
273
     0
  0
XRECORD
  5
1F8
102
{ACAD_REACTORS
330
1F7
102
}
330
1F7
100
AcDbXrecord
280
     1
 70
     1
 90
429727718
  1
30362254-06B7-45E0-A893-8CFA70E3D6BC
310
504B03040A0000080000CC70623B3DEE336E79000000790000001B0000006175746F6465736B2D64657369676E2D7061636B6167652E786D6C3C3F786D6C2076657273696F6E3D22312E302220656E636F64696E673D227574662D3822203F3E3C666F726D6174733E3C666F726D61743E687474703A2F2F736368656D612E
310
6175746F6465736B2E636F6D2F64657369676E2D7061636B6167652F323030393C2F666F726D61743E3C2F666F726D6174733E504B0304140006080800CC70623BD486FD9CA0000000F4000000130000005B436F6E74656E745F54797065735D2E786D6C7D8EC10E82300C865F65E91D8A1E8C310C0EEA1BF002731658846E
310
D98AC1B77784ABF1D8FE5FBFBF75BBCE937A534CCEB38643598122B6FEE978D0B0485F9C41B54DDD7D022595594E1A469170414C76A4D9A4D207E29CF43ECE46F218070CC6BECC4078ACAA135ACF422C856C0E68EA1BF5669944DDD7BCDE7B1F8E415D77AECB980613C2E4AC91FC167A2B244592486606FC29C8FD7F045B9A
310
EF7053A7E60B504B0304140006080800CC70623B1EC5D7A3EB0000007C01000008000000636F72652E786D6C8D90416EC3201045AF82665B6103C6756C6122AB4D4ED00B204C5C94182C03558F5F9C3852BBEB6A467FFE9B197D71FC9E6FE8CBACC17AD7032D0820E3B41FAD9B7A48F1820F808E52ACDEC75F36404ECDA687
310
4D0629A6D5A76597B477D1B89855E747B38B2A041301E95B6E7A08FAD3CCAA50296647B8168BD2573599823EBB0CA76447F43862C7BCCF5EAC59410E4DDD9C7973C2755553CCCFA4C603E3040F1565ED3B1FDE4E432BCA0D9622DAF9795FAF464533826484B498524CD807E51D79ED187F21878E10516EF63F505AC67F42C9
310
BA58B1FDDD071640D2FCC87D2045B96591CB3DA85CB7DCE40F504B0304140006080800CC70623B55019EA25F0000007C00000007000000636E782E786D6C4DCB3B0E80201045D1AD90E915ED2CF8AC45050C11660C8261F98AB1B07AC9C97D42D718D865D3E909258CFD00CCE24AC6E326A164D74DC0B4128928FF32603847
310
2BA13128B1252AC747C6BAB984FC68F0B87FE8960A5C09FE86CFB69FBA01504B0304140006080800CC70623B8C9102E971010000D40300000C0000006662782F636F72652E786D6CC5535B6E833010BC8AE5DF0A6C08340F1947A84D4ED00B38C6A128602363A31CBFCB234A53A551FA553EC09AD9F5CE8C31DB9E9B1AF5CA
310
7695D1198E428A91D2D214952E33ECDD315861B4E5CC1AE3BE9561A445A3323CC098B3D21ADFCE9034DA29ED00D5A6503328BA4E398C640D8B0C77F253352214DE4145770A5B214FA2546114020D759C75CE8200340D19DE981F0F6746269C33EFAB6266AB02A655C74A59CCF365BADC27CB5D902ED22848F6340DF238A141
310
BE88E2F57B92BFEDF23523433367AE6A2EEAA455C2A902F398D2751045018D3FA264435F3771F242571B4A1919CA6F9A7C5B3CD9E42BED16F12C776AEB308F40C848FC700B1139D4891EF410CEC810227CC6846F8386402064270EF5C5C709A05E49676C024C61FC95EA45ED154CA5211D1FF4FB8291A913A68E9B83EBBB33
310
E2A7673CDE118E5AE8124C0807CB8377834E366998436B950D7A7746DAD846D4CFD978E0F04FD455FC5D49D2D4C6FE9722321F10997F0F32DC47FE05504B0304140006080800CC70623BFFEA85907E0000009D0000000B0000006662782F636E782E786D6C4DCCD10A83201886E15B91FFDC95D95A811AB6F23E625948A6C3
310
E9D8E5AF46073BFAE0E1E365ED67B3E8ADC3CB78C7815C7240DA3DFC64DCC221C519D7805AC182F7F1EF06C88D9BE6703008B6049F9E274D7A1E938DBB5AE3D6131B2589BA0D3D965551E0B2EA732C9B9A624AAEB41E3A557677029960D9AFB4EF11165F504B0304140006080800CC70623B4FEEA4082C0100001202000031
310
0000006662782F39464131463745442D413632322D343644302D413938332D3331353338454246344243312F636F72652E786D6C8D515B6EC32010BC0AE2AB55850DD871ED0813254D72825EC00192A2C460F1A872FC42ED48ED5F7E00CDCECCCEB26C731F6FE05B39AFADE921293004CA082BB5B9F43086336A21D870E6AC
310
0D7F68109861543DCC30E4ECE26C9C164858139409093556AA051CBC570102714B8F1E7AF1A5C6A11862480C7F2DA6415C878B2A4891CA89C7990F2E050073937C42DE1DB7E4F87ED8A36D4329AA9B3D46DBAEAD504556557BD81DEBDD0761E52CE42C462D17B996298E3E6BE59E35C962CE821E1FF18553435012728A7187
310
0841987E927A8D9B35ADDF70BBC6989599FE4F1427F9A4286A132ABAC49D651EF234CD5CE04CDA78BA3DC2A8FB645D00B9DF8B57E215725C60BCA2A463E54C4CE327C7A65E1C7DB02E7DEFCBF594B864C5CA6CDBD49C957943E9FA5D5FBAF336F90F504B0304140006080800CC70623BAD7543B64E01000033030000300000
310
006662782F39464131463745442D413632322D343644302D413938332D3331353338454246344243312F636E782E786D6CD593CD6EC32010845F0571AD6CE3D48AD20813A9873E410FBD12D82434182C7EAAE6EDBB2424CD25871E7B41D6EC30B3FA84F9E67BB2E40B4234DE8DB46F1925E094D7C6ED479AD3AE5951B2113C
310
789FEE6C943839C1488B4C05DF079FE72A69D8C96C13AAD6B8631503449F83828872B949AC57D26200B826A308D316B4064D6E46FCDA41C05550DC9E483A00797BFD207EFB092A45DE9514C1BBD22178396BD39D891265658C238DEA00936C654E5E433CB65A26D9F6EDB5EBC14EBF49A45CB856E66048291F6939A9A81BB5
310
C8917738143CA680F4AA299D66A042CEB3354A2684DC9D8D178FE0D9B8B41CAAD720F880EE7EF93C0C18769E099ECC04D5A102C8049A8A05632F4DDF376CF1DE0F6BB65C2F8627B65A33C6BB62177CEBBDAD973006829F89F22E814B54F4BC2BE347F8AA8F681390B50FA73F804400B5F542E796F19FF974E7F78DB802FE05
310
E207504B0304140006080800CC70623B16AB87BA640500003C100000340000006662782F39464131463745442D413632322D343644302D413938332D3331353338454246344243312F6F626A656374732E786D6CAD575B6FA33818FD2B887DE6924B3BED8A326A92B68A663B534DD4D13E548A0C38942D60649B369D5FBFC7
310
600890A493BDE42160637FD7F31D7FF63E6FB3D478A55C242CBF3247B66B1A340F5994E4F19559CA8D75611A9F7D8F33263BCB4C232719BD32D5B4E97B316765A1A722BA21652A07B3B7B33F0D11D29C9A46981221AE4C113ED38CD8A4942CA2E2C58E882476BCD9DA23BB5ED8171B73523C0F841684D35CC252CCE79062D4
310
468DFA43D7747CCF51DF7D4FFDEB5593E3AB9CCA9FBEFE241792E4E19EB28198C968BAB8199F5D5A67D3E9C49A9E8F47D6EC76B6B0469F26EEFC7C3EBFBCBEB98462213924694B38DD98FE1D62C393D073EA4FADC5DAF04326852CCF6958F90F0F2B9BB5C48816348F90C7840A68EB78EDF68723159BCEE7891A6B95DDE9D3
310
BCEAEEE8086A6C6F9E5D4B59F0175C10A7A0820BAA5055C7473B5AE3CFDD452D602CD5DF12616444529E90D448938013FE6EFA58AA96F85E4F8C42275708571E98FE6827AF6B2B4AE3D7D83D64E5A64C53054DD3AF90BD06FEA9149565C94FCA0F6B834DC85599E4F2423B24DF0B6AFA979E534DFA9E7A4CC6FA631D486393
310
921829879BF5D781A373557BCB85E97FB90DB62B558F8795179C15944B051F40AB495CF35451D26A4727654E6D8033BD98EF82F21D91FF8AF2DD9982BCF1643BDD4EB516C9492E368C67C88DED563FC36D5EACF66DFF057C3658BDBFA69DF9578B3DA735B64F18C7F20770A9D45CFCF7FCF563D6456A277DBEF78A02637CA2
310
43B90A490AEAB94F72244481D24819A6C0E59B606BFA4B3025981DBB48EAB701D97BF19C577CC77F2D1B6C55A9EF3C732474C0B727303F625995056C3B02963D9EAC146BE78EC5FCEC7FA999EBC5EACBAAE41B12D27B4D2C0BBA49F244E2ECDC81B76B502F113D8F5EE8FB1BE3111CDD4FC2AA9B844CAB1288B68AB90A7CDC
310
1C166AB0D3DC5310625FCC14E779BFD0709F8890A629C9292B1B2DED31A4B0DA928CEE135085754027E3018A397D4D5427D15BD1330B677DC8934285AC3DF45A9EB68FF8F2B8FC0A509AFEECFD0FF2DE25CC6047F7214B195F07EFEB9A094D800F7BFAE8FED187B78EA8A3A400F115961BCAD1215E47C966530AF0EE8128FE
310
58CEBB996A8964FFA529A046635D9353B0336A8F700DDF46271A024E70B0B37C9DE01847591E54DED53D54202AB947E4076556AC49C6CA5C9E1226B7F1A7B1BE15DEED62C41B91E1B3E9AFAAA735036547343A925075041DF0A9979E893B391F8FCFA6967B3EFB644DCF6E5CEBFAE272625DCC6FAF3FB93793C5F90CE1EF57
310
407342756B10D1C489E8953CD1617E5CEECAD6F4EF8914CE5D5D504E5C3F1F9736DA62CFC11E00BCDDB8CC8A9466349744C1F75EBDA4DF09BA8A9E8C7A7E9991989E20E5DBDD6A6003664ED8F7A04A8DBE0DF6EAD9B9AA858342E47399053949D2C146EDB85DE4B176BB0965FBAC19BD19AA918E27FA50C1D22402E144464C
310
59462568E704B6E71915404CB72B8FF4EDE184DDAF753F284990D2C6926782963815403548A70C657FDEF80D2D9CEAA2AE4C1C76F60BFE74219A06527D6582DF6412526107381E55E353090704D085B52408D0933C4ED159D79BDA71BB4BC506F4831350EB6F979CD22D69BF7AC49B91A2C0A9DDA3D5CA36AD20FC478E37E6
310
1844E2352865EBCB6EA275A652E3836BE04EFB400BF1A2556F515F1FBB35B2AB35BD889C744FFA1004B5544B121E57F70215746DD2F5E2C1412B602CBF19455AC6C8E5E9922C4E01E65215385004546899059180EAFCF7A707CE7017CD8CDB0410789AB32C63B91E5CEBBBACB17AC6CD347A022D5075FD106377347AAABA7E
310
7D11590744509B44E205134DC1290F06580320F78E537D3D73540E06CB970B431F185308AD40BBD794D6D77003C5A36E8EAA54BA64597CD8F83BD552A080A365F7FF06504B0304140006080000CC70623B000000000000000000000000350000006662782F39464131463745442D413632322D343644302D413938332D3331
310
353338454246344243312F76657274696365732E62696E504B0304140006080800CC70623BF270F1330600000004000000360000006662782F39464131463745442D413632322D343644302D413938332D3331353338454246344243312F747269616E676C65732E62696E636660600000504B0304140006080000CC70623B
310
000000000000000000000000370000006662782F39464131463745442D413632322D343644302D413938332D3331353338454246344243312F617474726962757465732E62696E504B0304140006080800CC70623B08DA0BD19000000041010000360000006662782F39464131463745442D413632322D343644302D413938
310
332D3331353338454246344243312F6469726563746F72792E786D6C858F410AC3201045AF22B36F53E9A60B35CBEEBAE80D244E44489C6234F4F835464A48035D0DF398FF9F8AF63D0E6CC63039F212F8F9020C7D47C6792B21C5FE7403D62A1188E2E60C98D7234A5830286103A55745067B9D86B8A3CF9C7F90C11DE607
310
FB144396D7B6A82D282E9A152AD114D5EF2CB866EEE831B8EEA07A7BB5A8D7D61A2BAAEB7FD5F70921FF497D00504B0304140006080800CC70623B0D6EF93BFE000000A00100003B0000006662782F39464131463745442D413632322D343644302D413938332D3331353338454246344243312F7265736F75726365732F63
310
6F72652E786D6C8D50596E833010BD0A9ADFCA60B334011947A8694ED00B586642AC041B79A97AFC9A40A5F6AF3F33A3B7689E1E3F7DCD8FEC139DD7D6F4C0720A191A65476DA61E62B892236427C19DB5E1970C322367EC618541F0C9D9B8EC90B226A009093576C41D94DE63804C3DD2D18357379C652E63480A7FCF17A9
310
EE72C29CE5894E3AC17D702940B63D59270887DE46A7D0F36263058F518FBB468FE9A7BE6A7420864373B8D4873369AA8691FA421B3294352543C5CAF65C0F6FEF43CB8BD52C78D0F34F46E550061C419494B6843142CB0F5677F4B52BEB177AEC28E5C52AFF638ACBF84F53D42654E51E77B379102C05791282176B5F693D
310
CB4C7BED567C03504B010214000A0000080000CC70623B3DEE336E79000000790000001B00000000000000000000000000000000006175746F6465736B2D64657369676E2D7061636B6167652E786D6C504B01021400140006080800CC70623BD486FD9CA0000000F40000001300000000000000000000000000B20000005B
310
436F6E74656E745F54797065735D2E786D6C504B01021400140006080800CC70623B1EC5D7A3EB0000007C010000080000000000000000000000000083010000636F72652E786D6C504B01021400140006080800CC70623B55019EA25F0000007C000000070000000000000000000000000094020000636E782E786D6C504B
310
01021400140006080800CC70623B8C9102E971010000D40300000C00000000000000000000000000180300006662782F636F72652E786D6C504B01021400140006080800CC70623BFFEA85907E0000009D0000000B00000000000000000000000000B30400006662782F636E782E786D6C504B01021400140006080800CC70
310
623B4FEEA4082C0100001202000031000000000000000000000000005A0500006662782F39464131463745442D413632322D343644302D413938332D3331353338454246344243312F636F72652E786D6C504B01021400140006080800CC70623BAD7543B64E010000330300003000000000000000000000000000D5060000
310
6662782F39464131463745442D413632322D343644302D413938332D3331353338454246344243312F636E782E786D6C504B01021400140006080800CC70623B16AB87BA640500003C1000003400000000000000000000000000710800006662782F39464131463745442D413632322D343644302D413938332D3331353338
310
454246344243312F6F626A656374732E786D6C504B01021400140006080000CC70623B0000000000000000000000003500000000000000000000000000270E00006662782F39464131463745442D413632322D343644302D413938332D3331353338454246344243312F76657274696365732E62696E504B01021400140006
310
080800CC70623BF270F133060000000400000036000000000000000000000000007A0E00006662782F39464131463745442D413632322D343644302D413938332D3331353338454246344243312F747269616E676C65732E62696E504B01021400140006080000CC70623B0000000000000000000000003700000000000000
310
000000000000D40E00006662782F39464131463745442D413632322D343644302D413938332D3331353338454246344243312F617474726962757465732E62696E504B01021400140006080800CC70623B08DA0BD190000000410100003600000000000000000000000000290F00006662782F39464131463745442D413632
310
322D343644302D413938332D3331353338454246344243312F6469726563746F72792E786D6C504B01021400140006080800CC70623B0D6EF93BFE000000A00100003B000000000000000000000000000D1000006662782F39464131463745442D413632322D343644302D413938332D3331353338454246344243312F7265
310
736F75726365732F636F72652E786D6C504B0506000000000E000E0080040000641100000000
  0
XRECORD
  5
33B
102
{ACAD_REACTORS
330
173
102
}
330
173
100
AcDbXrecord
280
     1
102
MATERIAL
148
0.0
149
0.0
149
0.0
 93
        0
 94
      127
282
     0
 72
     1
 77
     1
171
     1
175
     1
179
     1
273
     0
  0
XRECORD
  5
175
102
{ACAD_REACTORS
330
173
102
}
330
173
100
AcDbXrecord
280
     1
270
     1
271
     1
  0
XRECORD
  5
174
102
{ACAD_REACTORS
330
173
102
}
330
173
100
AcDbXrecord
280
     1
270
     1
271
     1
  0
XRECORD
  5
1FB
102
{ACAD_REACTORS
330
173
102
}
330
173
100
AcDbXrecord
280
     1
 70
     0
 90
1673772943
  1
ECE7A1D2-D628-4531-984C-D00F80459256
310
504B03040A0000080000CC70623B3DEE336E79000000790000001B0000006175746F6465736B2D64657369676E2D7061636B6167652E786D6C3C3F786D6C2076657273696F6E3D22312E302220656E636F64696E673D227574662D3822203F3E3C666F726D6174733E3C666F726D61743E687474703A2F2F736368656D612E
310
6175746F6465736B2E636F6D2F64657369676E2D7061636B6167652F323030393C2F666F726D61743E3C2F666F726D6174733E504B0304140006080800CC70623BD486FD9CA0000000F4000000130000005B436F6E74656E745F54797065735D2E786D6C7D8EC10E82300C865F65E91D8A1E8C310C0EEA1BF002731658846E
310
D98AC1B77784ABF1D8FE5FBFBF75BBCE937A534CCEB38643598122B6FEE978D0B0485F9C41B54DDD7D022595594E1A469170414C76A4D9A4D207E29CF43ECE46F218070CC6BECC4078ACAA135ACF422C856C0E68EA1BF5669944DDD7BCDE7B1F8E415D77AECB980613C2E4AC91FC167A2B244592486606FC29C8FD7F045B9A
310
EF7053A7E60B504B0304140006080800CC70623BD9DDAED0EC0000007C01000008000000636F72652E786D6C8D90416EC3201045AF82665B61836D9CD8C2444DD39CA01740405C94182C03558F5F9C3852BBEB6A467FFE9B197D7EF89E6EE8CB2CC17A37002D0820E394D7D68D03A478C17B4007C117EFE32F1B20272733C0
310
2A83E0E3E2D3BC49CABB685CCCAAF3DA6CA20CC14440EA969B0182FA34932C648AD911AEC52CD5558EA6A0CF2EC329598D1E47ACCEFBECC59A050463A7EA5833865FEBDD0E37353BE3EE8DBDE3F6786A48D375FBF6CC78B9C282473B3DEFABC5C86834888A900E538A49F5419B9EB47DD5BC907D4F082F57FB1F28CDFA9F50
310
B22ED6D5F6EE030B20687EE43E10BC5CB3C8E51E54AE6B6EE207504B0304140006080800CC70623B55019EA25F0000007C00000007000000636E782E786D6C4DCB3B0E80201045D1AD90E915ED2CF8AC45050C11660C8261F98AB1B07AC9C97D42D718D865D3E909258CFD00CCE24AC6E326A164D74DC0B4128928FF326038
310
472BA13128B1252AC747C6BAB984FC68F0B87FE8960A5C09FE86CFB69FBA01504B0304140006080800CC70623BA24EB22D72010000D40300000C0000006662782F636F72652E786D6CC5535B6E833010BC8AE5DF0A6C5E49888CA3A6694ED00B38E05014B091B1518EDFE511A5A9D228FD2A1F60CDEC7A67C6986DCE4D8D7A
310
69BA4AAB0C073EC548AA5C17952A33ECECD15B61B4E1CC686DBF9561A44423333CC098B3D268D7CE50AE9595CA02AA74216750749DB418E5352C32DCE59FB211BE70162ABA93DF8AFC244AE9073ED050C759670D0840D390E18DF9F1706664C23973AE2A66B62A605A75ACA4C13C4976E1364A12EF355A2EBD384AF65EFA96
310
BC7B8BED2EA6719AAE16FB8491A199335B351775B991C2CA02F390D2D40B028F861F41BCA68B7518BFD0D59A524686F29B26D7164F36B94AD9289CE54E6D1DE6010819891F6E21228B3AD1831EC219194284CF98F06DD01008846CC5A1BEF83801D4CBDC6A1303536877A57A513B0953A94FC707FDBE6064EA84A9E3E6E0FA
310
EE8CF0E9198F7784A316AA0413C2C2F2E0ECA0934D1AE6D05A69BCDE9E91D2A611F573361E38FC1375157F5752AE6B6DFE4B11990F88CCBF0719EE23FF02504B0304140006080800CC70623B408A7D3B7C0000009D0000000B0000006662782F636E782E786D6C4DCCD10A83201886E15B91FFDC552A92A0064DBC8F581632
310
D3703A76F9ABD1C18E3E78F878E5F0D9027ABBFCF2292AE86E2D20171F69F6715550CB827B40839639A5F2770314A7CD293819B45C73AAFB45B35BA61ACAA1C1C7E7855C58C15BC331339661262CC762340413D68D77DA5B42298546CBE6573AF60CEB2F504B0304140006080800CC70623B449FB9BD290100001202000031
310
0000006662782F36394639363044362D344446342D343946362D394244322D3234314243333846323333332F636F72652E786D6C8D515B6EC32010BC0AE22B55850D98B871848994463E412FE002495162B07854397EA176A4F62F3F2C9A9D991D587EB84F37F0AD7D30CEF6905418026DA553C65E7A98E219ED203808EE9D
310
8B7F6810D871D23D2C3014FCE25D9A57483A1BB58D19B54EE9151C43D0110279CB971E06F9A5A7B11A53CC8C70ADE6515EC78BAE4895DB992778883E0700CB907242D17643D7E2538BD869608875438BBAE38922CAC8F1BDD90DB4691A5E2F42C153326A951B95E398B3D1FE599322163C9AE9115F7A3D46ADA0A018778810
310
84E907617BDCEE297BC5BB3DC6BC2EF47FA234AB2745C9D8D8D035EE220B50105E2F0DC1954B9FB747187D9F9D8FA0CCDB042D5FA0C015C65B42DF78BD10F3F3B363CB56C7109DCFDFBBB97E662ED92EB62D13BC2E1BCAE5777DB9966D8A1F504B0304140006080800CC70623BAD7543B64E01000033030000300000006662
310
782F36394639363044362D344446342D343946362D394244322D3234314243333846323333332F636E782E786D6CD593CD6EC32010845F0571AD6CE3D48AD20813A9873E410FBD12D82434182C7EAAE6EDBB2424CD25871E7B41D6EC30B3FA84F9E67BB2E40B4234DE8DB46F1925E094D7C6ED479AD3AE5951B2113C789FEE
310
6C943839C1488B4C05DF079FE72A69D8C96C13AAD6B8631503449F83828872B949AC57D26200B826A308D316B4064D6E46FCDA41C05550DC9E483A00797BFD207EFB092A45DE9514C1BBD22178396BD39D891265658C238DEA00936C654E5E433CB65A26D9F6EDB5EBC14EBF49A45CB856E66048291F6939A9A81BB5C89177
310
38143CA680F4AA299D66A042CEB3354A2684DC9D8D178FE0D9B8B41CAAD720F880EE7EF93C0C18769E099ECC04D5A102C8049A8A05632F4DDF376CF1DE0F6BB65C2F8627B65A33C6BB62177CEBBDAD973006829F89F22E814B54F4BC2BE347F8AA8F681390B50FA73F804400B5F542E796F19FF974E7F78DB802FE05E20750
310
4B0304140006080800CC70623B8D05915C650500003B100000340000006662782F36394639363044362D344446342D343946362D394244322D3234314243333846323333332F6F626A656374732E786D6CAD575B6FA33814FE2B887D06429276DA1565D4266D158D3A339A6846FB502932E050B66023DB74D2FDF5FB190C01
310
9276B2973C046C8ECFF53B17071F77456EBD502133CEAE6CDF9DD81665314F32965ED995DA3A17B6F5310C04E7AA47665B8C14F4CAD6DB7618A48257A5D94AE89654B91AEDDEDDFC61C998326A5B714EA4BCB265FC440BE2924AF184CA6737218AB8E976E7FA6E4338649B0A523E8D98964450A6A029F619B8588D52FE7039
310
B1BD30F0F4F730D0FF866AF6369557DB33949F31A9088B0F848DD8CCFCF9F2767A76E99CCDE733677E3EF59D9BBB9BA5E37F984D16E78BC5E5F5ED25044B25C0C96822E8D60EEFE11B91C581D77CEA34368A1F5329E68CD1B8B61F16D63A1B8E092D294B10C78C4A48EB593D192E7DED9BDEE7995E1B91FDEDD3ACEA9FE831
310
6A756F9F7D4D79F4274C90A7A04248AA51D5F8C718DAE06FB2F75AC4796EBE65D22A88A22223B995679120E2D50E41AA49C260C046A35368846B0BECD0DFF3EBEB8AD4F835768F69B9ADF25C43D30E6B646F807FAA64AD59F61715C7A54127C4AACA98BA3006A9D792DAE165E0D59B61A01FB3A9F9D838D2DAE62445C86166
310
F37564E842E7DE6A69879FEEA2DD5AE7E371E1A5E025154AC307D06A03D73EB5978C58FFA4C8E9033066E0F3BD53BEC1F39F91BE7B55103791EDE6BBB991A2046172CB4581D8B893FA674DDA17A77B3B7C413D1B511FD2743BFF8A38F03A658705E3ADF8015C3A3417FF3D7E439FF591DA0B5F18BC20C1B8981957AE6392A3
310
F43C640C01D1A0B4728E2DD4F26DB4B3C3152A252A3B4E913CEC1C72F012782FF88EFF8637AA552DBEF76408E8A8DE9E50F9E1CB3A2DA0DB1B6039A893B56063DC5B3E3FFB5F72E67AB9FEB4AEC496C4F4C1149625DD662C53E89D7BF0F6151A046260D1337DFDC94502430F83B0EE07A130A224BCAD7DAE1D9FB6CD422FF6
310
920702629C4BB9AE79C12F243C6432A6794E18E5552BA56B431AAB5D91317302B2B071E86C3A42B1A02F999E24061403B5D0EB639195DA655DD3EBEAB4FB862DDF579F014AD0E73C22F99E28DA57FB98E75C6CA2D74D53086D600F4786E0FE3144B771A8A7B900F03594DB8A633CBC49B2EDB69228BB479CF863B5E807AAAB
310
23872F6DFEB4129B949CA33823F58830E86D65621E10047D9DB34D862E8EAC3C2ABC2F7B2C40D67CDFE01F5545B92105AF983AC54D93D69E56FB8E797F88913F898A9FEC705D3F9D1B54EC8426FB500D40A03BD0119B06E1B95DDC7EB8F6975367793EBD70E66733DFB9BC982F9CE564727731999F5D4ECFCE3B8D6A4DC2A0
310
6D50FD148437D110834A64C6CDDF57FBACB5C307A2A477DFE4939736CFEF2B175371E0E10CF0DD1D5C15654E0BCA14D1E87DD02FF93782A162C0A3D95F1524A52770F972BF1EE9809D13CE7DD599467F8ECE9ADD85CE85A34CD45355448C64F9E8A031DC2D596ACC6E5DD93D9B82DE2EF5CAF81363A8E47996A0DE24564A79
310
4115AACE09C55E14540231FDA13C319787134EBF34E3A022514E5B4D9E0826E25C02D5805B15ABE1BEF51B26383D445DD9E875EE33FE4C22DA16427D65A3BCA92CA6D28DD01DF5DC53330704308475351050232CCD31583787BA75774AFB06E5070DD0C8EF484E19968C5D83BA5B90B244D31E54D55A372320FE4786B7EA58
310
44E135AA5467CB7EA333A61683CC6A8C3257034C10CF46F40EF9F5BE59BE5BD30C3C72D235E95D10345C1D45445A5F0BB47E46A5EBE5570F9380B5FA629579952296A773720405982B9DE04011506178964401AA8BDF1FBF0A8EAB6861DD6580C0E38217056766716DAEB2D6FA0917D3E4116581EADB879C4E7CFFB11EFACD
310
3D641311495D92C8676CB409A72D18610D803CE8A626049E8EC1887CB5B44CC39883690DDA8399B4B9855B481E7D71D4A9D22F96E5BB73BF5793020C02137BF837504B0304140006080000CC70623B000000000000000000000000350000006662782F36394639363044362D344446342D343946362D394244322D32343142
310
43333846323333332F76657274696365732E62696E504B0304140006080800CC70623BF270F1330600000004000000360000006662782F36394639363044362D344446342D343946362D394244322D3234314243333846323333332F747269616E676C65732E62696E636660600000504B0304140006080000CC70623B0000
310
00000000000000000000370000006662782F36394639363044362D344446342D343946362D394244322D3234314243333846323333332F617474726962757465732E62696E504B0304140006080800CC70623B08DA0BD19000000041010000360000006662782F36394639363044362D344446342D343946362D394244322D
310
3234314243333846323333332F6469726563746F72792E786D6C858F410AC3201045AF22B36F53E9A60B35CBEEBAE80D244E44489C6234F4F835464A48035D0DF398FF9F8AF63D0E6CC63039F212F8F9020C7D47C6792B21C5FE7403D62A1188E2E60C98D7234A5830286103A55745067B9D86B8A3CF9C7F90C11DE607FB14
310
4396D7B6A82D282E9A152AD114D5EF2CB866EEE831B8EEA07A7BB5A8D7D61A2BAAEB7FD5F70921FF497D00504B0304140006080800CC70623BCA768048FE000000A00100003B0000006662782F36394639363044362D344446342D343946362D394244322D3234314243333846323333332F7265736F75726365732F636F72
310
652E786D6C8D50596E833010BD0A9ADFCA60D600328E9AA639412F609909B1126CE4A5EAF16B0295DABFFECC8CDEA2797AECF8353F924FB44E193D409E5248504B332A3D0D10FC95B4901C39B3C6F85F3248B49871801506CE266BC2B243D2688FDA47549B11775038871E12F988C7004EDE7016A9083E2ADC3D5D84BC8B09
310
D33C8D74D471E6BC8D0192EDC93A815B742658898E651BCB59086ADC356A8C3FD555A1055ED7E7E254D615792D0F075295F585746FF53B694EE78A565DD736979A65AB9933AFE69F8CD2A2F038022F28ED489E135A7CE4554F9BBEA85E68DB53CAB255FEC71496F19FA6A0B42F8B3DEE6673C0F318E4497096AD7DC5F52C33
310
EEB55BFE0D504B010214000A0000080000CC70623B3DEE336E79000000790000001B00000000000000000000000000000000006175746F6465736B2D64657369676E2D7061636B6167652E786D6C504B01021400140006080800CC70623BD486FD9CA0000000F40000001300000000000000000000000000B20000005B436F
310
6E74656E745F54797065735D2E786D6C504B01021400140006080800CC70623BD9DDAED0EC0000007C010000080000000000000000000000000083010000636F72652E786D6C504B01021400140006080800CC70623B55019EA25F0000007C000000070000000000000000000000000095020000636E782E786D6C504B0102
310
1400140006080800CC70623BA24EB22D72010000D40300000C00000000000000000000000000190300006662782F636F72652E786D6C504B01021400140006080800CC70623B408A7D3B7C0000009D0000000B00000000000000000000000000B50400006662782F636E782E786D6C504B01021400140006080800CC70623B
310
449FB9BD290100001202000031000000000000000000000000005A0500006662782F36394639363044362D344446342D343946362D394244322D3234314243333846323333332F636F72652E786D6C504B01021400140006080800CC70623BAD7543B64E010000330300003000000000000000000000000000D20600006662
310
782F36394639363044362D344446342D343946362D394244322D3234314243333846323333332F636E782E786D6C504B01021400140006080800CC70623B8D05915C650500003B10000034000000000000000000000000006E0800006662782F36394639363044362D344446342D343946362D394244322D32343142433338
310
46323333332F6F626A656374732E786D6C504B01021400140006080000CC70623B0000000000000000000000003500000000000000000000000000250E00006662782F36394639363044362D344446342D343946362D394244322D3234314243333846323333332F76657274696365732E62696E504B010214001400060808
310
00CC70623BF270F13306000000040000003600000000000000000000000000780E00006662782F36394639363044362D344446342D343946362D394244322D3234314243333846323333332F747269616E676C65732E62696E504B01021400140006080000CC70623B00000000000000000000000037000000000000000000
310
00000000D20E00006662782F36394639363044362D344446342D343946362D394244322D3234314243333846323333332F617474726962757465732E62696E504B01021400140006080800CC70623B08DA0BD190000000410100003600000000000000000000000000270F00006662782F36394639363044362D344446342D
310
343946362D394244322D3234314243333846323333332F6469726563746F72792E786D6C504B01021400140006080800CC70623BCA768048FE000000A00100003B000000000000000000000000000B1000006662782F36394639363044362D344446342D343946362D394244322D3234314243333846323333332F7265736F
310
75726365732F636F72652E786D6C504B0506000000000E000E0080040000621100000000
  0
XRECORD
  5
176
102
{ACAD_REACTORS
330
173
102
}
330
173
100
AcDbXrecord
280
     1
270
     1
271
     1
  0
XRECORD
  5
177
102
{ACAD_REACTORS
330
173
102
}
330
173
100
AcDbXrecord
280
     1
270
     1
271
     1
  0
CELLSTYLEMAP
  5
67F
102
{ACAD_REACTORS
330
162
102
}
330
162
100
AcDbCellStyleMap
 90
        3
300
CELLSTYLE
  1
TABLEFORMAT_BEGIN
 90
        5
170
     1
 91
        0
 92
    32768
 62
   257
 93
        1
300
CONTENTFORMAT
  1
CONTENTFORMAT_BEGIN
 90
        0
 91
        0
 92
      512
 93
        0
300

 40
0.0
140
1.0
 94
        5
 62
     0
340
11
144
6.0
309
CONTENTFORMAT_END
171
     1
301
MARGIN
  1
CELLMARGIN_BEGIN
 40
1.5
 40
1.5
 40
1.5
 40
1.5
 40
0.18
 40
0.18
309
CELLMARGIN_END
 94
        6
 95
        1
302
GRIDFORMAT
  1
GRIDFORMAT_BEGIN
 90
        0
 91
        1
 62
     0
 92
       -2
340
14
 93
        0
 40
1.125
309
GRIDFORMAT_END
 95
        2
302
GRIDFORMAT
  1
GRIDFORMAT_BEGIN
 90
        0
 91
        1
 62
     0
 92
       -2
340
14
 93
        0
 40
1.125
309
GRIDFORMAT_END
 95
        4
302
GRIDFORMAT
  1
GRIDFORMAT_BEGIN
 90
        0
 91
        1
 62
     0
 92
       -2
340
14
 93
        0
 40
1.125
309
GRIDFORMAT_END
 95
        8
302
GRIDFORMAT
  1
GRIDFORMAT_BEGIN
 90
        0
 91
        1
 62
     0
 92
       -2
340
14
 93
        0
 40
1.125
309
GRIDFORMAT_END
 95
       16
302
GRIDFORMAT
  1
GRIDFORMAT_BEGIN
 90
        0
 91
        1
 62
     0
 92
       -2
340
14
 93
        0
 40
1.125
309
GRIDFORMAT_END
 95
       32
302
GRIDFORMAT
  1
GRIDFORMAT_BEGIN
 90
        0
 91
        1
 62
     0
 92
       -2
340
14
 93
        0
 40
1.125
309
GRIDFORMAT_END
309
TABLEFORMAT_END
  1
CELLSTYLE_BEGIN
 90
        1
 91
        1
300
_TITLE
309
CELLSTYLE_END
300
CELLSTYLE
  1
TABLEFORMAT_BEGIN
 90
        5
170
     1
 91
        0
 92
        0
 62
   257
 93
        1
300
CONTENTFORMAT
  1
CONTENTFORMAT_BEGIN
 90
        0
 91
        0
 92
      512
 93
        0
300

 40
0.0
140
1.0
 94
        5
 62
     0
340
11
144
4.5
309
CONTENTFORMAT_END
171
     1
301
MARGIN
  1
CELLMARGIN_BEGIN
 40
1.5
 40
1.5
 40
1.5
 40
1.5
 40
0.18
 40
0.18
309
CELLMARGIN_END
 94
        6
 95
        1
302
GRIDFORMAT
  1
GRIDFORMAT_BEGIN
 90
        0
 91
        1
 62
     0
 92
       -2
340
14
 93
        0
 40
1.125
309
GRIDFORMAT_END
 95
        2
302
GRIDFORMAT
  1
GRIDFORMAT_BEGIN
 90
        0
 91
        1
 62
     0
 92
       -2
340
14
 93
        0
 40
1.125
309
GRIDFORMAT_END
 95
        4
302
GRIDFORMAT
  1
GRIDFORMAT_BEGIN
 90
        0
 91
        1
 62
     0
 92
       -2
340
14
 93
        0
 40
1.125
309
GRIDFORMAT_END
 95
        8
302
GRIDFORMAT
  1
GRIDFORMAT_BEGIN
 90
        0
 91
        1
 62
     0
 92
       -2
340
14
 93
        0
 40
1.125
309
GRIDFORMAT_END
 95
       16
302
GRIDFORMAT
  1
GRIDFORMAT_BEGIN
 90
        0
 91
        1
 62
     0
 92
       -2
340
14
 93
        0
 40
1.125
309
GRIDFORMAT_END
 95
       32
302
GRIDFORMAT
  1
GRIDFORMAT_BEGIN
 90
        0
 91
        1
 62
     0
 92
       -2
340
14
 93
        0
 40
1.125
309
GRIDFORMAT_END
309
TABLEFORMAT_END
  1
CELLSTYLE_BEGIN
 90
        2
 91
        1
300
_HEADER
309
CELLSTYLE_END
300
CELLSTYLE
  1
TABLEFORMAT_BEGIN
 90
        5
170
     1
 91
        0
 92
        0
 62
   257
 93
        1
300
CONTENTFORMAT
  1
CONTENTFORMAT_BEGIN
 90
        0
 91
        0
 92
      512
 93
        0
300

 40
0.0
140
1.0
 94
        2
 62
     0
340
11
144
4.5
309
CONTENTFORMAT_END
171
     1
301
MARGIN
  1
CELLMARGIN_BEGIN
 40
1.5
 40
1.5
 40
1.5
 40
1.5
 40
0.18
 40
0.18
309
CELLMARGIN_END
 94
        6
 95
        1
302
GRIDFORMAT
  1
GRIDFORMAT_BEGIN
 90
        0
 91
        1
 62
     0
 92
       -2
340
14
 93
        0
 40
1.125
309
GRIDFORMAT_END
 95
        2
302
GRIDFORMAT
  1
GRIDFORMAT_BEGIN
 90
        0
 91
        1
 62
     0
 92
       -2
340
14
 93
        0
 40
1.125
309
GRIDFORMAT_END
 95
        4
302
GRIDFORMAT
  1
GRIDFORMAT_BEGIN
 90
        0
 91
        1
 62
     0
 92
       -2
340
14
 93
        0
 40
1.125
309
GRIDFORMAT_END
 95
        8
302
GRIDFORMAT
  1
GRIDFORMAT_BEGIN
 90
        0
 91
        1
 62
     0
 92
       -2
340
14
 93
        0
 40
1.125
309
GRIDFORMAT_END
 95
       16
302
GRIDFORMAT
  1
GRIDFORMAT_BEGIN
 90
        0
 91
        1
 62
     0
 92
       -2
340
14
 93
        0
 40
1.125
309
GRIDFORMAT_END
 95
       32
302
GRIDFORMAT
  1
GRIDFORMAT_BEGIN
 90
        0
 91
        1
 62
     0
 92
       -2
340
14
 93
        0
 40
1.125
309
GRIDFORMAT_END
309
TABLEFORMAT_END
  1
CELLSTYLE_BEGIN
 90
        3
 91
        2
300
_DATA
309
CELLSTYLE_END
  0
XRECORD
  5
684
102
{ACAD_REACTORS
330
162
102
}
330
162
100
AcDbXrecord
280
     1
102
ACAD_ROUNDTRIP_PRE2007_TABLESTYLE
 90
      512
 91
        0
  1

 92
      512
 93
        0
  2

 94
      512
 95
        0
  3

  0
XRECORD
  5
694
102
{ACAD_REACTORS
330
693
102
}
330
693
100
AcDbXrecord
280
     1
102
RTVSPost2010Prop28
280
     1
102
RTVSPost2010PropOp28
 70
     1
102
RTVSPost2010Prop29
280
     1
102
RTVSPost2010PropOp29
 70
     1
102
RTVSPost2010Prop30
280
     0
102
RTVSPost2010PropOp30
 70
     1
102
RTVSPost2010Prop31
280
     0
102
RTVSPost2010PropOp31
 70
     1
102
RTVSPost2010Prop32
280
     0
102
RTVSPost2010PropOp32
 70
     1
102
RTVSPost2010Prop33
280
     0
102
RTVSPost2010PropOp33
 70
     1
102
RTVSPost2010Prop34
280
     0
102
RTVSPost2010PropOp34
 70
     1
102
RTVSPost2010Prop35
280
     0
102
RTVSPost2010PropOp35
 70
     1
102
RTVSPost2010Prop36
280
     0
102
RTVSPost2010PropOp36
 70
     1
102
RTVSPost2010Prop37
 90
       50
102
RTVSPost2010PropOp37
 70
     1
102
RTVSPost2010Prop38
140
0.0
102
RTVSPost2010PropOp38
 70
     1
102
RTVSPost2010Prop39
140
1.0
102
RTVSPost2010PropOp39
 70
     1
102
RTVSPost2010Prop40
 90
        0
102
RTVSPost2010PropOp40
 70
     1
102
RTVSPost2010Prop41ColorIndex
 90
       18
102
RTVSPost2010Prop41ColorRGB
 90
        0
102
RTVSPost2010PropOp41
 70
     1
102
RTVSPost2010Prop42
 90
       50
102
RTVSPost2010PropOp42
 70
     1
102
RTVSPost2010Prop43
 90
        3
102
RTVSPost2010PropOp43
 70
     1
102
RTVSPost2010Prop44ColorIndex
 90
        5
102
RTVSPost2010Prop44ColorRGB
 90
      255
102
RTVSPost2010PropOp44
 70
     1
102
RTVSPost2010Prop45
280
     0
102
RTVSPost2010PropOp45
 70
     1
102
RTVSPost2010Prop46
 90
       50
102
RTVSPost2010PropOp46
 70
     1
102
RTVSPost2010Prop47
 90
       50
102
RTVSPost2010PropOp47
 70
     1
102
RTVSPost2010Prop48
 90
       50
102
RTVSPost2010PropOp48
 70
     1
102
RTVSPost2010Prop49
280
     0
102
RTVSPost2010PropOp49
 70
     1
102
RTVSPost2010Prop50
 90
       50
102
RTVSPost2010PropOp50
 70
     1
102
RTVSPost2010Prop51ColorIndex
 90
      256
102
RTVSPost2010Prop51ColorRGB
 90
-16777216
102
RTVSPost2010PropOp51
 70
     0
102
RTVSPost2010Prop52
140
1.0
102
RTVSPost2010PropOp52
 70
     0
102
RTVSPost2010Prop53
 90
        2
102
RTVSPost2010PropOp53
 70
     1
102
RTVSPost2010Prop54
  1
strokes_ogs.tif
102
RTVSPost2010PropOp54
 70
     1
102
RTVSPost2010Prop55
280
     0
102
RTVSPost2010PropOp55
 70
     1
102
RTVSPost2010Prop56
140
1.0
102
RTVSPost2010PropOp56
 70
     1
102
RTVSPost2010Prop57
140
1.0
102
RTVSPost2010PropOp57
 70
     1
102
RTVSPropertyOp0
 70
     1
102
RTVSPropertyOp1
 70
     1
102
RTVSPropertyOp2
 70
     1
102
RTVSPropertyOp3
 70
     1
102
RTVSPropertyOp4
 70
     1
102
RTVSPropertyOp5
 70
     1
102
RTVSPropertyOp6
 70
     1
102
RTVSPropertyOp7
 70
     1
102
RTVSPropertyOp8
 70
     1
102
RTVSPropertyOp9
 70
     1
102
RTVSPropertyOp10
 70
     1
102
RTVSPropertyOp11
 70
     1
102
RTVSPropertyOp12
 70
     1
102
RTVSPropertyOp13
 70
     1
102
RTVSPropertyOp14
 70
     1
102
RTVSPropertyOp15
 70
     1
102
RTVSPropertyOp16
 70
     1
102
RTVSPropertyOp17
 70
     1
102
RTVSPropertyOp18
 70
     1
102
RTVSPropertyOp19
 70
     1
102
RTVSPropertyOp20
 70
     1
102
RTVSPropertyOp21
 70
     1
102
RTVSPropertyOp22
 70
     1
102
RTVSPropertyOp23
 70
     1
102
RTVSPropertyOp24
 70
     1
102
RTVSPropertyOp25
 70
     1
102
RTVSPropertyOp26
 70
     1
102
RTVSPropertyOp27
 70
     1
102
RTVSPropertyOp28
 70
     1
102
RTVSPropertyOp29
 70
     1
102
RTVSPropertyOp30
 70
     1
102
RTVSPropertyOp31
 70
     1
102
RTVSPropertyOp32
 70
     1
102
RTVSPropertyOp33
 70
     1
102
RTVSPropertyOp34
 70
     1
102
RTVSPropertyOp35
 70
     1
102
RTVSPropertyOp36
 70
     1
102
RTVSPropertyOp37
 70
     1
102
RTVSPropertyOp38
 70
     1
102
RTVSPropertyOp39
 70
     1
102
RTVSPropertyOp40
 70
     1
102
RTVSPropertyOp41
 70
     1
102
RTVSPropertyOp42
 70
     1
102
RTVSPropertyOp43
 70
     1
102
RTVSPropertyOp44
 70
     1
102
RTVSPropertyOp45
 70
     1
102
RTVSPropertyOp46
 70
     1
102
RTVSPropertyOp47
 70
     1
102
RTVSPropertyOp48
 70
     1
102
RTVSPropertyOp49
 70
     1
102
RTVSPropertyOp50
 70
     1
102
RTVSPropertyOp51
 70
     0
102
RTVSPropertyOp52
 70
     0
102
RTVSPropertyOp53
 70
     1
102
RTVSPropertyOp54
 70
     1
102
RTVSPropertyOp55
 70
     1
102
RTVSPropertyOp56
 70
     1
102
RTVSPropertyOp57
 70
     1
102
RTVSPropertyOp58
 70
     1
102
RTVSPropertyOp59
 70
     1
102
RTVSPropertyOp60
 70
     1
102
RTVSPropertyOp61
 70
     1
102
RTVSPropertyOp62
 70
     1
  0
XRECORD
  5
692
102
{ACAD_REACTORS
330
691
102
}
330
691
100
AcDbXrecord
280
     1
102
RTVSPost2010Prop28
280
     0
102
RTVSPost2010PropOp28
 70
     1
102
RTVSPost2010Prop29
280
     1
102
RTVSPost2010PropOp29
 70
     1
102
RTVSPost2010Prop30
280
     1
102
RTVSPost2010PropOp30
 70
     1
102
RTVSPost2010Prop31
280
     0
102
RTVSPost2010PropOp31
 70
     1
102
RTVSPost2010Prop32
280
     0
102
RTVSPost2010PropOp32
 70
     1
102
RTVSPost2010Prop33
280
     0
102
RTVSPost2010PropOp33
 70
     1
102
RTVSPost2010Prop34
280
     0
102
RTVSPost2010PropOp34
 70
     1
102
RTVSPost2010Prop35
280
     0
102
RTVSPost2010PropOp35
 70
     1
102
RTVSPost2010Prop36
280
     0
102
RTVSPost2010PropOp36
 70
     1
102
RTVSPost2010Prop37
 90
       50
102
RTVSPost2010PropOp37
 70
     1
102
RTVSPost2010Prop38
140
0.0
102
RTVSPost2010PropOp38
 70
     1
102
RTVSPost2010Prop39
140
1.0
102
RTVSPost2010PropOp39
 70
     1
102
RTVSPost2010Prop40
 90
        0
102
RTVSPost2010PropOp40
 70
     1
102
RTVSPost2010Prop41ColorIndex
 90
       18
102
RTVSPost2010Prop41ColorRGB
 90
        0
102
RTVSPost2010PropOp41
 70
     1
102
RTVSPost2010Prop42
 90
       50
102
RTVSPost2010PropOp42
 70
     1
102
RTVSPost2010Prop43
 90
        3
102
RTVSPost2010PropOp43
 70
     1
102
RTVSPost2010Prop44ColorIndex
 90
        5
102
RTVSPost2010Prop44ColorRGB
 90
      255
102
RTVSPost2010PropOp44
 70
     1
102
RTVSPost2010Prop45
280
     0
102
RTVSPost2010PropOp45
 70
     1
102
RTVSPost2010Prop46
 90
       50
102
RTVSPost2010PropOp46
 70
     1
102
RTVSPost2010Prop47
 90
       50
102
RTVSPost2010PropOp47
 70
     1
102
RTVSPost2010Prop48
 90
       50
102
RTVSPost2010PropOp48
 70
     1
102
RTVSPost2010Prop49
280
     0
102
RTVSPost2010PropOp49
 70
     1
102
RTVSPost2010Prop50
 90
       50
102
RTVSPost2010PropOp50
 70
     1
102
RTVSPost2010Prop51ColorIndex
 90
      256
102
RTVSPost2010Prop51ColorRGB
 90
-16777216
102
RTVSPost2010PropOp51
 70
     0
102
RTVSPost2010Prop52
140
1.0
102
RTVSPost2010PropOp52
 70
     0
102
RTVSPost2010Prop53
 90
        2
102
RTVSPost2010PropOp53
 70
     1
102
RTVSPost2010Prop54
  1
strokes_ogs.tif
102
RTVSPost2010PropOp54
 70
     1
102
RTVSPost2010Prop55
280
     0
102
RTVSPost2010PropOp55
 70
     1
102
RTVSPost2010Prop56
140
1.0
102
RTVSPost2010PropOp56
 70
     1
102
RTVSPost2010Prop57
140
1.0
102
RTVSPost2010PropOp57
 70
     1
102
RTVSPropertyOp0
 70
     1
102
RTVSPropertyOp1
 70
     1
102
RTVSPropertyOp2
 70
     1
102
RTVSPropertyOp3
 70
     1
102
RTVSPropertyOp4
 70
     1
102
RTVSPropertyOp5
 70
     1
102
RTVSPropertyOp6
 70
     1
102
RTVSPropertyOp7
 70
     1
102
RTVSPropertyOp8
 70
     1
102
RTVSPropertyOp9
 70
     1
102
RTVSPropertyOp10
 70
     1
102
RTVSPropertyOp11
 70
     1
102
RTVSPropertyOp12
 70
     1
102
RTVSPropertyOp13
 70
     1
102
RTVSPropertyOp14
 70
     1
102
RTVSPropertyOp15
 70
     1
102
RTVSPropertyOp16
 70
     1
102
RTVSPropertyOp17
 70
     1
102
RTVSPropertyOp18
 70
     1
102
RTVSPropertyOp19
 70
     1
102
RTVSPropertyOp20
 70
     1
102
RTVSPropertyOp21
 70
     1
102
RTVSPropertyOp22
 70
     1
102
RTVSPropertyOp23
 70
     1
102
RTVSPropertyOp24
 70
     1
102
RTVSPropertyOp25
 70
     1
102
RTVSPropertyOp26
 70
     1
102
RTVSPropertyOp27
 70
     1
102
RTVSPropertyOp28
 70
     1
102
RTVSPropertyOp29
 70
     1
102
RTVSPropertyOp30
 70
     1
102
RTVSPropertyOp31
 70
     1
102
RTVSPropertyOp32
 70
     1
102
RTVSPropertyOp33
 70
     1
102
RTVSPropertyOp34
 70
     1
102
RTVSPropertyOp35
 70
     1
102
RTVSPropertyOp36
 70
     1
102
RTVSPropertyOp37
 70
     1
102
RTVSPropertyOp38
 70
     1
102
RTVSPropertyOp39
 70
     1
102
RTVSPropertyOp40
 70
     1
102
RTVSPropertyOp41
 70
     1
102
RTVSPropertyOp42
 70
     1
102
RTVSPropertyOp43
 70
     1
102
RTVSPropertyOp44
 70
     1
102
RTVSPropertyOp45
 70
     1
102
RTVSPropertyOp46
 70
     1
102
RTVSPropertyOp47
 70
     1
102
RTVSPropertyOp48
 70
     1
102
RTVSPropertyOp49
 70
     1
102
RTVSPropertyOp50
 70
     1
102
RTVSPropertyOp51
 70
     0
102
RTVSPropertyOp52
 70
     0
102
RTVSPropertyOp53
 70
     1
102
RTVSPropertyOp54
 70
     1
102
RTVSPropertyOp55
 70
     1
102
RTVSPropertyOp56
 70
     1
102
RTVSPropertyOp57
 70
     1
102
RTVSPropertyOp58
 70
     1
102
RTVSPropertyOp59
 70
     1
102
RTVSPropertyOp60
 70
     1
102
RTVSPropertyOp61
 70
     1
102
RTVSPropertyOp62
 70
     1
  0
XRECORD
  5
6A0
102
{ACAD_REACTORS
330
69F
102
}
330
69F
100
AcDbXrecord
280
     1
102
RTVSPost2010Prop28
280
     0
102
RTVSPost2010PropOp28
 70
     1
102
RTVSPost2010Prop29
280
     1
102
RTVSPost2010PropOp29
 70
     1
102
RTVSPost2010Prop30
280
     1
102
RTVSPost2010PropOp30
 70
     1
102
RTVSPost2010Prop31
280
     0
102
RTVSPost2010PropOp31
 70
     1
102
RTVSPost2010Prop32
280
     0
102
RTVSPost2010PropOp32
 70
     1
102
RTVSPost2010Prop33
280
     0
102
RTVSPost2010PropOp33
 70
     1
102
RTVSPost2010Prop34
280
     0
102
RTVSPost2010PropOp34
 70
     1
102
RTVSPost2010Prop35
280
     0
102
RTVSPost2010PropOp35
 70
     1
102
RTVSPost2010Prop36
280
     0
102
RTVSPost2010PropOp36
 70
     1
102
RTVSPost2010Prop37
 90
       50
102
RTVSPost2010PropOp37
 70
     1
102
RTVSPost2010Prop38
140
0.0
102
RTVSPost2010PropOp38
 70
     1
102
RTVSPost2010Prop39
140
1.0
102
RTVSPost2010PropOp39
 70
     1
102
RTVSPost2010Prop40
 90
        0
102
RTVSPost2010PropOp40
 70
     1
102
RTVSPost2010Prop41ColorIndex
 90
       18
102
RTVSPost2010Prop41ColorRGB
 90
        0
102
RTVSPost2010PropOp41
 70
     1
102
RTVSPost2010Prop42
 90
       50
102
RTVSPost2010PropOp42
 70
     1
102
RTVSPost2010Prop43
 90
        3
102
RTVSPost2010PropOp43
 70
     1
102
RTVSPost2010Prop44ColorIndex
 90
        5
102
RTVSPost2010Prop44ColorRGB
 90
      255
102
RTVSPost2010PropOp44
 70
     1
102
RTVSPost2010Prop45
280
     0
102
RTVSPost2010PropOp45
 70
     1
102
RTVSPost2010Prop46
 90
       50
102
RTVSPost2010PropOp46
 70
     1
102
RTVSPost2010Prop47
 90
       50
102
RTVSPost2010PropOp47
 70
     1
102
RTVSPost2010Prop48
 90
       50
102
RTVSPost2010PropOp48
 70
     1
102
RTVSPost2010Prop49
280
     0
102
RTVSPost2010PropOp49
 70
     1
102
RTVSPost2010Prop50
 90
       50
102
RTVSPost2010PropOp50
 70
     1
102
RTVSPost2010Prop51ColorIndex
 90
      256
102
RTVSPost2010Prop51ColorRGB
 90
-16777216
102
RTVSPost2010PropOp51
 70
     0
102
RTVSPost2010Prop52
140
1.0
102
RTVSPost2010PropOp52
 70
     0
102
RTVSPost2010Prop53
 90
        2
102
RTVSPost2010PropOp53
 70
     1
102
RTVSPost2010Prop54
  1
strokes_ogs.tif
102
RTVSPost2010PropOp54
 70
     1
102
RTVSPost2010Prop55
280
     0
102
RTVSPost2010PropOp55
 70
     1
102
RTVSPost2010Prop56
140
1.0
102
RTVSPost2010PropOp56
 70
     1
102
RTVSPost2010Prop57
140
1.0
102
RTVSPost2010PropOp57
 70
     1
102
RTVSPropertyOp0
 70
     1
102
RTVSPropertyOp1
 70
     1
102
RTVSPropertyOp2
 70
     1
102
RTVSPropertyOp3
 70
     1
102
RTVSPropertyOp4
 70
     1
102
RTVSPropertyOp5
 70
     1
102
RTVSPropertyOp6
 70
     1
102
RTVSPropertyOp7
 70
     1
102
RTVSPropertyOp8
 70
     1
102
RTVSPropertyOp9
 70
     1
102
RTVSPropertyOp10
 70
     1
102
RTVSPropertyOp11
 70
     1
102
RTVSPropertyOp12
 70
     1
102
RTVSPropertyOp13
 70
     1
102
RTVSPropertyOp14
 70
     1
102
RTVSPropertyOp15
 70
     1
102
RTVSPropertyOp16
 70
     1
102
RTVSPropertyOp17
 70
     1
102
RTVSPropertyOp18
 70
     1
102
RTVSPropertyOp19
 70
     1
102
RTVSPropertyOp20
 70
     1
102
RTVSPropertyOp21
 70
     1
102
RTVSPropertyOp22
 70
     1
102
RTVSPropertyOp23
 70
     1
102
RTVSPropertyOp24
 70
     1
102
RTVSPropertyOp25
 70
     1
102
RTVSPropertyOp26
 70
     1
102
RTVSPropertyOp27
 70
     1
102
RTVSPropertyOp28
 70
     1
102
RTVSPropertyOp29
 70
     1
102
RTVSPropertyOp30
 70
     1
102
RTVSPropertyOp31
 70
     1
102
RTVSPropertyOp32
 70
     1
102
RTVSPropertyOp33
 70
     1
102
RTVSPropertyOp34
 70
     1
102
RTVSPropertyOp35
 70
     1
102
RTVSPropertyOp36
 70
     1
102
RTVSPropertyOp37
 70
     1
102
RTVSPropertyOp38
 70
     1
102
RTVSPropertyOp39
 70
     1
102
RTVSPropertyOp40
 70
     1
102
RTVSPropertyOp41
 70
     1
102
RTVSPropertyOp42
 70
     1
102
RTVSPropertyOp43
 70
     1
102
RTVSPropertyOp44
 70
     1
102
RTVSPropertyOp45
 70
     1
102
RTVSPropertyOp46
 70
     1
102
RTVSPropertyOp47
 70
     1
102
RTVSPropertyOp48
 70
     1
102
RTVSPropertyOp49
 70
     1
102
RTVSPropertyOp50
 70
     1
102
RTVSPropertyOp51
 70
     0
102
RTVSPropertyOp52
 70
     0
102
RTVSPropertyOp53
 70
     1
102
RTVSPropertyOp54
 70
     1
102
RTVSPropertyOp55
 70
     1
102
RTVSPropertyOp56
 70
     1
102
RTVSPropertyOp57
 70
     1
102
RTVSPropertyOp58
 70
     1
102
RTVSPropertyOp59
 70
     1
102
RTVSPropertyOp60
 70
     1
102
RTVSPropertyOp61
 70
     1
102
RTVSPropertyOp62
 70
     1
  0
XRECORD
  5
6A8
102
{ACAD_REACTORS
330
6A7
102
}
330
6A7
100
AcDbXrecord
280
     1
102
RTVSPost2010Prop28
280
     0
102
RTVSPost2010PropOp28
 70
     1
102
RTVSPost2010Prop29
280
     1
102
RTVSPost2010PropOp29
 70
     1
102
RTVSPost2010Prop30
280
     1
102
RTVSPost2010PropOp30
 70
     1
102
RTVSPost2010Prop31
280
     0
102
RTVSPost2010PropOp31
 70
     1
102
RTVSPost2010Prop32
280
     0
102
RTVSPost2010PropOp32
 70
     1
102
RTVSPost2010Prop33
280
     0
102
RTVSPost2010PropOp33
 70
     1
102
RTVSPost2010Prop34
280
     0
102
RTVSPost2010PropOp34
 70
     1
102
RTVSPost2010Prop35
280
     0
102
RTVSPost2010PropOp35
 70
     1
102
RTVSPost2010Prop36
280
     0
102
RTVSPost2010PropOp36
 70
     1
102
RTVSPost2010Prop37
 90
       50
102
RTVSPost2010PropOp37
 70
     1
102
RTVSPost2010Prop38
140
0.0
102
RTVSPost2010PropOp38
 70
     1
102
RTVSPost2010Prop39
140
1.0
102
RTVSPost2010PropOp39
 70
     1
102
RTVSPost2010Prop40
 90
        0
102
RTVSPost2010PropOp40
 70
     1
102
RTVSPost2010Prop41ColorIndex
 90
       18
102
RTVSPost2010Prop41ColorRGB
 90
        0
102
RTVSPost2010PropOp41
 70
     1
102
RTVSPost2010Prop42
 90
       50
102
RTVSPost2010PropOp42
 70
     1
102
RTVSPost2010Prop43
 90
        3
102
RTVSPost2010PropOp43
 70
     1
102
RTVSPost2010Prop44ColorIndex
 90
        5
102
RTVSPost2010Prop44ColorRGB
 90
      255
102
RTVSPost2010PropOp44
 70
     1
102
RTVSPost2010Prop45
280
     0
102
RTVSPost2010PropOp45
 70
     1
102
RTVSPost2010Prop46
 90
       50
102
RTVSPost2010PropOp46
 70
     1
102
RTVSPost2010Prop47
 90
       50
102
RTVSPost2010PropOp47
 70
     1
102
RTVSPost2010Prop48
 90
       50
102
RTVSPost2010PropOp48
 70
     1
102
RTVSPost2010Prop49
280
     0
102
RTVSPost2010PropOp49
 70
     1
102
RTVSPost2010Prop50
 90
       50
102
RTVSPost2010PropOp50
 70
     1
102
RTVSPost2010Prop51ColorIndex
 90
      256
102
RTVSPost2010Prop51ColorRGB
 90
-16777216
102
RTVSPost2010PropOp51
 70
     0
102
RTVSPost2010Prop52
140
1.0
102
RTVSPost2010PropOp52
 70
     0
102
RTVSPost2010Prop53
 90
        2
102
RTVSPost2010PropOp53
 70
     1
102
RTVSPost2010Prop54
  1
strokes_ogs.tif
102
RTVSPost2010PropOp54
 70
     1
102
RTVSPost2010Prop55
280
     0
102
RTVSPost2010PropOp55
 70
     1
102
RTVSPost2010Prop56
140
1.0
102
RTVSPost2010PropOp56
 70
     1
102
RTVSPost2010Prop57
140
1.0
102
RTVSPost2010PropOp57
 70
     1
102
RTVSPropertyOp0
 70
     1
102
RTVSPropertyOp1
 70
     1
102
RTVSPropertyOp2
 70
     1
102
RTVSPropertyOp3
 70
     1
102
RTVSPropertyOp4
 70
     1
102
RTVSPropertyOp5
 70
     1
102
RTVSPropertyOp6
 70
     1
102
RTVSPropertyOp7
 70
     1
102
RTVSPropertyOp8
 70
     1
102
RTVSPropertyOp9
 70
     1
102
RTVSPropertyOp10
 70
     1
102
RTVSPropertyOp11
 70
     1
102
RTVSPropertyOp12
 70
     1
102
RTVSPropertyOp13
 70
     1
102
RTVSPropertyOp14
 70
     1
102
RTVSPropertyOp15
 70
     1
102
RTVSPropertyOp16
 70
     1
102
RTVSPropertyOp17
 70
     1
102
RTVSPropertyOp18
 70
     1
102
RTVSPropertyOp19
 70
     1
102
RTVSPropertyOp20
 70
     1
102
RTVSPropertyOp21
 70
     1
102
RTVSPropertyOp22
 70
     1
102
RTVSPropertyOp23
 70
     1
102
RTVSPropertyOp24
 70
     1
102
RTVSPropertyOp25
 70
     1
102
RTVSPropertyOp26
 70
     1
102
RTVSPropertyOp27
 70
     1
102
RTVSPropertyOp28
 70
     1
102
RTVSPropertyOp29
 70
     1
102
RTVSPropertyOp30
 70
     1
102
RTVSPropertyOp31
 70
     1
102
RTVSPropertyOp32
 70
     1
102
RTVSPropertyOp33
 70
     1
102
RTVSPropertyOp34
 70
     1
102
RTVSPropertyOp35
 70
     1
102
RTVSPropertyOp36
 70
     1
102
RTVSPropertyOp37
 70
     1
102
RTVSPropertyOp38
 70
     1
102
RTVSPropertyOp39
 70
     1
102
RTVSPropertyOp40
 70
     1
102
RTVSPropertyOp41
 70
     1
102
RTVSPropertyOp42
 70
     1
102
RTVSPropertyOp43
 70
     1
102
RTVSPropertyOp44
 70
     1
102
RTVSPropertyOp45
 70
     1
102
RTVSPropertyOp46
 70
     1
102
RTVSPropertyOp47
 70
     1
102
RTVSPropertyOp48
 70
     1
102
RTVSPropertyOp49
 70
     1
102
RTVSPropertyOp50
 70
     1
102
RTVSPropertyOp51
 70
     0
102
RTVSPropertyOp52
 70
     0
102
RTVSPropertyOp53
 70
     1
102
RTVSPropertyOp54
 70
     1
102
RTVSPropertyOp55
 70
     1
102
RTVSPropertyOp56
 70
     1
102
RTVSPropertyOp57
 70
     1
102
RTVSPropertyOp58
 70
     1
102
RTVSPropertyOp59
 70
     1
102
RTVSPropertyOp60
 70
     1
102
RTVSPropertyOp61
 70
     1
102
RTVSPropertyOp62
 70
     1
  0
XRECORD
  5
69A
102
{ACAD_REACTORS
330
699
102
}
330
699
100
AcDbXrecord
280
     1
102
RTVSPost2010Prop28
280
     0
102
RTVSPost2010PropOp28
 70
     1
102
RTVSPost2010Prop29
280
     1
102
RTVSPost2010PropOp29
 70
     1
102
RTVSPost2010Prop30
280
     1
102
RTVSPost2010PropOp30
 70
     1
102
RTVSPost2010Prop31
280
     0
102
RTVSPost2010PropOp31
 70
     1
102
RTVSPost2010Prop32
280
     0
102
RTVSPost2010PropOp32
 70
     1
102
RTVSPost2010Prop33
280
     0
102
RTVSPost2010PropOp33
 70
     1
102
RTVSPost2010Prop34
280
     0
102
RTVSPost2010PropOp34
 70
     1
102
RTVSPost2010Prop35
280
     0
102
RTVSPost2010PropOp35
 70
     1
102
RTVSPost2010Prop36
280
     0
102
RTVSPost2010PropOp36
 70
     1
102
RTVSPost2010Prop37
 90
       50
102
RTVSPost2010PropOp37
 70
     1
102
RTVSPost2010Prop38
140
0.0
102
RTVSPost2010PropOp38
 70
     1
102
RTVSPost2010Prop39
140
1.0
102
RTVSPost2010PropOp39
 70
     1
102
RTVSPost2010Prop40
 90
        0
102
RTVSPost2010PropOp40
 70
     1
102
RTVSPost2010Prop41ColorIndex
 90
       18
102
RTVSPost2010Prop41ColorRGB
 90
        0
102
RTVSPost2010PropOp41
 70
     1
102
RTVSPost2010Prop42
 90
       50
102
RTVSPost2010PropOp42
 70
     1
102
RTVSPost2010Prop43
 90
        3
102
RTVSPost2010PropOp43
 70
     1
102
RTVSPost2010Prop44ColorIndex
 90
        5
102
RTVSPost2010Prop44ColorRGB
 90
      255
102
RTVSPost2010PropOp44
 70
     1
102
RTVSPost2010Prop45
280
     0
102
RTVSPost2010PropOp45
 70
     1
102
RTVSPost2010Prop46
 90
       50
102
RTVSPost2010PropOp46
 70
     1
102
RTVSPost2010Prop47
 90
       50
102
RTVSPost2010PropOp47
 70
     1
102
RTVSPost2010Prop48
 90
       50
102
RTVSPost2010PropOp48
 70
     1
102
RTVSPost2010Prop49
280
     0
102
RTVSPost2010PropOp49
 70
     1
102
RTVSPost2010Prop50
 90
       50
102
RTVSPost2010PropOp50
 70
     1
102
RTVSPost2010Prop51ColorIndex
 90
      256
102
RTVSPost2010Prop51ColorRGB
 90
-16777216
102
RTVSPost2010PropOp51
 70
     0
102
RTVSPost2010Prop52
140
1.0
102
RTVSPost2010PropOp52
 70
     0
102
RTVSPost2010Prop53
 90
        2
102
RTVSPost2010PropOp53
 70
     1
102
RTVSPost2010Prop54
  1
strokes_ogs.tif
102
RTVSPost2010PropOp54
 70
     1
102
RTVSPost2010Prop55
280
     0
102
RTVSPost2010PropOp55
 70
     1
102
RTVSPost2010Prop56
140
1.0
102
RTVSPost2010PropOp56
 70
     1
102
RTVSPost2010Prop57
140
1.0
102
RTVSPost2010PropOp57
 70
     1
102
RTVSPropertyOp0
 70
     1
102
RTVSPropertyOp1
 70
     1
102
RTVSPropertyOp2
 70
     1
102
RTVSPropertyOp3
 70
     1
102
RTVSPropertyOp4
 70
     1
102
RTVSPropertyOp5
 70
     1
102
RTVSPropertyOp6
 70
     1
102
RTVSPropertyOp7
 70
     1
102
RTVSPropertyOp8
 70
     1
102
RTVSPropertyOp9
 70
     1
102
RTVSPropertyOp10
 70
     1
102
RTVSPropertyOp11
 70
     1
102
RTVSPropertyOp12
 70
     1
102
RTVSPropertyOp13
 70
     1
102
RTVSPropertyOp14
 70
     1
102
RTVSPropertyOp15
 70
     1
102
RTVSPropertyOp16
 70
     1
102
RTVSPropertyOp17
 70
     1
102
RTVSPropertyOp18
 70
     1
102
RTVSPropertyOp19
 70
     1
102
RTVSPropertyOp20
 70
     1
102
RTVSPropertyOp21
 70
     1
102
RTVSPropertyOp22
 70
     1
102
RTVSPropertyOp23
 70
     1
102
RTVSPropertyOp24
 70
     1
102
RTVSPropertyOp25
 70
     1
102
RTVSPropertyOp26
 70
     1
102
RTVSPropertyOp27
 70
     1
102
RTVSPropertyOp28
 70
     1
102
RTVSPropertyOp29
 70
     1
102
RTVSPropertyOp30
 70
     1
102
RTVSPropertyOp31
 70
     1
102
RTVSPropertyOp32
 70
     1
102
RTVSPropertyOp33
 70
     1
102
RTVSPropertyOp34
 70
     1
102
RTVSPropertyOp35
 70
     1
102
RTVSPropertyOp36
 70
     1
102
RTVSPropertyOp37
 70
     1
102
RTVSPropertyOp38
 70
     1
102
RTVSPropertyOp39
 70
     1
102
RTVSPropertyOp40
 70
     1
102
RTVSPropertyOp41
 70
     1
102
RTVSPropertyOp42
 70
     1
102
RTVSPropertyOp43
 70
     1
102
RTVSPropertyOp44
 70
     1
102
RTVSPropertyOp45
 70
     1
102
RTVSPropertyOp46
 70
     1
102
RTVSPropertyOp47
 70
     1
102
RTVSPropertyOp48
 70
     1
102
RTVSPropertyOp49
 70
     1
102
RTVSPropertyOp50
 70
     1
102
RTVSPropertyOp51
 70
     0
102
RTVSPropertyOp52
 70
     0
102
RTVSPropertyOp53
 70
     1
102
RTVSPropertyOp54
 70
     1
102
RTVSPropertyOp55
 70
     1
102
RTVSPropertyOp56
 70
     1
102
RTVSPropertyOp57
 70
     1
102
RTVSPropertyOp58
 70
     1
102
RTVSPropertyOp59
 70
     1
102
RTVSPropertyOp60
 70
     1
102
RTVSPropertyOp61
 70
     1
102
RTVSPropertyOp62
 70
     1
  0
XRECORD
  5
69E
102
{ACAD_REACTORS
330
69D
102
}
330
69D
100
AcDbXrecord
280
     1
102
RTVSPost2010Prop28
280
     0
102
RTVSPost2010PropOp28
 70
     1
102
RTVSPost2010Prop29
280
     1
102
RTVSPost2010PropOp29
 70
     1
102
RTVSPost2010Prop30
280
     1
102
RTVSPost2010PropOp30
 70
     1
102
RTVSPost2010Prop31
280
     0
102
RTVSPost2010PropOp31
 70
     1
102
RTVSPost2010Prop32
280
     0
102
RTVSPost2010PropOp32
 70
     1
102
RTVSPost2010Prop33
280
     0
102
RTVSPost2010PropOp33
 70
     1
102
RTVSPost2010Prop34
280
     0
102
RTVSPost2010PropOp34
 70
     1
102
RTVSPost2010Prop35
280
     0
102
RTVSPost2010PropOp35
 70
     1
102
RTVSPost2010Prop36
280
     0
102
RTVSPost2010PropOp36
 70
     1
102
RTVSPost2010Prop37
 90
       50
102
RTVSPost2010PropOp37
 70
     1
102
RTVSPost2010Prop38
140
0.0
102
RTVSPost2010PropOp38
 70
     1
102
RTVSPost2010Prop39
140
1.0
102
RTVSPost2010PropOp39
 70
     1
102
RTVSPost2010Prop40
 90
        0
102
RTVSPost2010PropOp40
 70
     1
102
RTVSPost2010Prop41ColorIndex
 90
       18
102
RTVSPost2010Prop41ColorRGB
 90
        0
102
RTVSPost2010PropOp41
 70
     1
102
RTVSPost2010Prop42
 90
       50
102
RTVSPost2010PropOp42
 70
     1
102
RTVSPost2010Prop43
 90
        3
102
RTVSPost2010PropOp43
 70
     1
102
RTVSPost2010Prop44ColorIndex
 90
        5
102
RTVSPost2010Prop44ColorRGB
 90
      255
102
RTVSPost2010PropOp44
 70
     1
102
RTVSPost2010Prop45
280
     0
102
RTVSPost2010PropOp45
 70
     1
102
RTVSPost2010Prop46
 90
       50
102
RTVSPost2010PropOp46
 70
     1
102
RTVSPost2010Prop47
 90
       50
102
RTVSPost2010PropOp47
 70
     1
102
RTVSPost2010Prop48
 90
       50
102
RTVSPost2010PropOp48
 70
     1
102
RTVSPost2010Prop49
280
     0
102
RTVSPost2010PropOp49
 70
     1
102
RTVSPost2010Prop50
 90
       50
102
RTVSPost2010PropOp50
 70
     1
102
RTVSPost2010Prop51ColorIndex
 90
      256
102
RTVSPost2010Prop51ColorRGB
 90
-16777216
102
RTVSPost2010PropOp51
 70
     0
102
RTVSPost2010Prop52
140
1.0
102
RTVSPost2010PropOp52
 70
     0
102
RTVSPost2010Prop53
 90
        2
102
RTVSPost2010PropOp53
 70
     1
102
RTVSPost2010Prop54
  1
strokes_ogs.tif
102
RTVSPost2010PropOp54
 70
     1
102
RTVSPost2010Prop55
280
     0
102
RTVSPost2010PropOp55
 70
     1
102
RTVSPost2010Prop56
140
1.0
102
RTVSPost2010PropOp56
 70
     1
102
RTVSPost2010Prop57
140
1.0
102
RTVSPost2010PropOp57
 70
     1
102
RTVSPropertyOp0
 70
     1
102
RTVSPropertyOp1
 70
     1
102
RTVSPropertyOp2
 70
     1
102
RTVSPropertyOp3
 70
     1
102
RTVSPropertyOp4
 70
     1
102
RTVSPropertyOp5
 70
     1
102
RTVSPropertyOp6
 70
     1
102
RTVSPropertyOp7
 70
     1
102
RTVSPropertyOp8
 70
     1
102
RTVSPropertyOp9
 70
     1
102
RTVSPropertyOp10
 70
     1
102
RTVSPropertyOp11
 70
     1
102
RTVSPropertyOp12
 70
     1
102
RTVSPropertyOp13
 70
     1
102
RTVSPropertyOp14
 70
     1
102
RTVSPropertyOp15
 70
     1
102
RTVSPropertyOp16
 70
     1
102
RTVSPropertyOp17
 70
     1
102
RTVSPropertyOp18
 70
     1
102
RTVSPropertyOp19
 70
     1
102
RTVSPropertyOp20
 70
     1
102
RTVSPropertyOp21
 70
     1
102
RTVSPropertyOp22
 70
     1
102
RTVSPropertyOp23
 70
     1
102
RTVSPropertyOp24
 70
     1
102
RTVSPropertyOp25
 70
     1
102
RTVSPropertyOp26
 70
     1
102
RTVSPropertyOp27
 70
     1
102
RTVSPropertyOp28
 70
     1
102
RTVSPropertyOp29
 70
     1
102
RTVSPropertyOp30
 70
     1
102
RTVSPropertyOp31
 70
     1
102
RTVSPropertyOp32
 70
     1
102
RTVSPropertyOp33
 70
     1
102
RTVSPropertyOp34
 70
     1
102
RTVSPropertyOp35
 70
     1
102
RTVSPropertyOp36
 70
     1
102
RTVSPropertyOp37
 70
     1
102
RTVSPropertyOp38
 70
     1
102
RTVSPropertyOp39
 70
     1
102
RTVSPropertyOp40
 70
     1
102
RTVSPropertyOp41
 70
     1
102
RTVSPropertyOp42
 70
     1
102
RTVSPropertyOp43
 70
     1
102
RTVSPropertyOp44
 70
     1
102
RTVSPropertyOp45
 70
     1
102
RTVSPropertyOp46
 70
     1
102
RTVSPropertyOp47
 70
     1
102
RTVSPropertyOp48
 70
     1
102
RTVSPropertyOp49
 70
     1
102
RTVSPropertyOp50
 70
     1
102
RTVSPropertyOp51
 70
     0
102
RTVSPropertyOp52
 70
     0
102
RTVSPropertyOp53
 70
     1
102
RTVSPropertyOp54
 70
     1
102
RTVSPropertyOp55
 70
     1
102
RTVSPropertyOp56
 70
     1
102
RTVSPropertyOp57
 70
     1
102
RTVSPropertyOp58
 70
     1
102
RTVSPropertyOp59
 70
     1
102
RTVSPropertyOp60
 70
     1
102
RTVSPropertyOp61
 70
     1
102
RTVSPropertyOp62
 70
     1
  0
XRECORD
  5
6AE
102
{ACAD_REACTORS
330
6AD
102
}
330
6AD
100
AcDbXrecord
280
     1
102
RTVSPost2010Prop28
280
     0
102
RTVSPost2010PropOp28
 70
     1
102
RTVSPost2010Prop29
280
     1
102
RTVSPost2010PropOp29
 70
     1
102
RTVSPost2010Prop30
280
     1
102
RTVSPost2010PropOp30
 70
     1
102
RTVSPost2010Prop31
280
     0
102
RTVSPost2010PropOp31
 70
     1
102
RTVSPost2010Prop32
280
     0
102
RTVSPost2010PropOp32
 70
     1
102
RTVSPost2010Prop33
280
     0
102
RTVSPost2010PropOp33
 70
     1
102
RTVSPost2010Prop34
280
     0
102
RTVSPost2010PropOp34
 70
     1
102
RTVSPost2010Prop35
280
     0
102
RTVSPost2010PropOp35
 70
     1
102
RTVSPost2010Prop36
280
     0
102
RTVSPost2010PropOp36
 70
     1
102
RTVSPost2010Prop37
 90
       50
102
RTVSPost2010PropOp37
 70
     1
102
RTVSPost2010Prop38
140
0.0
102
RTVSPost2010PropOp38
 70
     1
102
RTVSPost2010Prop39
140
1.0
102
RTVSPost2010PropOp39
 70
     1
102
RTVSPost2010Prop40
 90
        0
102
RTVSPost2010PropOp40
 70
     1
102
RTVSPost2010Prop41ColorIndex
 90
       18
102
RTVSPost2010Prop41ColorRGB
 90
        0
102
RTVSPost2010PropOp41
 70
     1
102
RTVSPost2010Prop42
 90
       50
102
RTVSPost2010PropOp42
 70
     1
102
RTVSPost2010Prop43
 90
        3
102
RTVSPost2010PropOp43
 70
     1
102
RTVSPost2010Prop44ColorIndex
 90
        5
102
RTVSPost2010Prop44ColorRGB
 90
      255
102
RTVSPost2010PropOp44
 70
     1
102
RTVSPost2010Prop45
280
     0
102
RTVSPost2010PropOp45
 70
     1
102
RTVSPost2010Prop46
 90
       50
102
RTVSPost2010PropOp46
 70
     1
102
RTVSPost2010Prop47
 90
       50
102
RTVSPost2010PropOp47
 70
     1
102
RTVSPost2010Prop48
 90
       50
102
RTVSPost2010PropOp48
 70
     1
102
RTVSPost2010Prop49
280
     0
102
RTVSPost2010PropOp49
 70
     1
102
RTVSPost2010Prop50
 90
       50
102
RTVSPost2010PropOp50
 70
     1
102
RTVSPost2010Prop51ColorIndex
 90
      256
102
RTVSPost2010Prop51ColorRGB
 90
-16777216
102
RTVSPost2010PropOp51
 70
     0
102
RTVSPost2010Prop52
140
1.0
102
RTVSPost2010PropOp52
 70
     0
102
RTVSPost2010Prop53
 90
        2
102
RTVSPost2010PropOp53
 70
     1
102
RTVSPost2010Prop54
  1
strokes_ogs.tif
102
RTVSPost2010PropOp54
 70
     1
102
RTVSPost2010Prop55
280
     0
102
RTVSPost2010PropOp55
 70
     1
102
RTVSPost2010Prop56
140
1.0
102
RTVSPost2010PropOp56
 70
     1
102
RTVSPost2010Prop57
140
1.0
102
RTVSPost2010PropOp57
 70
     1
102
RTVSPropertyOp0
 70
     0
102
RTVSPropertyOp1
 70
     0
102
RTVSPropertyOp2
 70
     0
102
RTVSPropertyOp3
 70
     0
102
RTVSPropertyOp4
 70
     0
102
RTVSPropertyOp5
 70
     0
102
RTVSPropertyOp6
 70
     0
102
RTVSPropertyOp7
 70
     0
102
RTVSPropertyOp8
 70
     0
102
RTVSPropertyOp9
 70
     0
102
RTVSPropertyOp10
 70
     0
102
RTVSPropertyOp11
 70
     0
102
RTVSPropertyOp12
 70
     0
102
RTVSPropertyOp13
 70
     0
102
RTVSPropertyOp14
 70
     2
102
RTVSPropertyOp15
 70
     0
102
RTVSPropertyOp16
 70
     0
102
RTVSPropertyOp17
 70
     0
102
RTVSPropertyOp18
 70
     0
102
RTVSPropertyOp19
 70
     0
102
RTVSPropertyOp20
 70
     0
102
RTVSPropertyOp21
 70
     0
102
RTVSPropertyOp22
 70
     0
102
RTVSPropertyOp23
 70
     0
102
RTVSPropertyOp24
 70
     0
102
RTVSPropertyOp25
 70
     0
102
RTVSPropertyOp26
 70
     0
102
RTVSPropertyOp27
 70
     0
102
RTVSPropertyOp28
 70
     1
102
RTVSPropertyOp29
 70
     1
102
RTVSPropertyOp30
 70
     1
102
RTVSPropertyOp31
 70
     1
102
RTVSPropertyOp32
 70
     1
102
RTVSPropertyOp33
 70
     1
102
RTVSPropertyOp34
 70
     1
102
RTVSPropertyOp35
 70
     1
102
RTVSPropertyOp36
 70
     1
102
RTVSPropertyOp37
 70
     1
102
RTVSPropertyOp38
 70
     1
102
RTVSPropertyOp39
 70
     1
102
RTVSPropertyOp40
 70
     1
102
RTVSPropertyOp41
 70
     1
102
RTVSPropertyOp42
 70
     1
102
RTVSPropertyOp43
 70
     1
102
RTVSPropertyOp44
 70
     1
102
RTVSPropertyOp45
 70
     1
102
RTVSPropertyOp46
 70
     1
102
RTVSPropertyOp47
 70
     1
102
RTVSPropertyOp48
 70
     1
102
RTVSPropertyOp49
 70
     1
102
RTVSPropertyOp50
 70
     1
102
RTVSPropertyOp51
 70
     0
102
RTVSPropertyOp52
 70
     0
102
RTVSPropertyOp53
 70
     1
102
RTVSPropertyOp54
 70
     1
102
RTVSPropertyOp55
 70
     1
102
RTVSPropertyOp56
 70
     1
102
RTVSPropertyOp57
 70
     1
102
RTVSPropertyOp58
 70
     1
102
RTVSPropertyOp59
 70
     1
102
RTVSPropertyOp60
 70
     1
102
RTVSPropertyOp61
 70
     1
102
RTVSPropertyOp62
 70
     1
  0
XRECORD
  5
6A6
102
{ACAD_REACTORS
330
6A5
102
}
330
6A5
100
AcDbXrecord
280
     1
102
RTVSPost2010Prop28
280
     0
102
RTVSPost2010PropOp28
 70
     1
102
RTVSPost2010Prop29
280
     1
102
RTVSPost2010PropOp29
 70
     1
102
RTVSPost2010Prop30
280
     1
102
RTVSPost2010PropOp30
 70
     1
102
RTVSPost2010Prop31
280
     0
102
RTVSPost2010PropOp31
 70
     1
102
RTVSPost2010Prop32
280
     0
102
RTVSPost2010PropOp32
 70
     1
102
RTVSPost2010Prop33
280
     0
102
RTVSPost2010PropOp33
 70
     1
102
RTVSPost2010Prop34
280
     0
102
RTVSPost2010PropOp34
 70
     1
102
RTVSPost2010Prop35
280
     0
102
RTVSPost2010PropOp35
 70
     1
102
RTVSPost2010Prop36
280
     0
102
RTVSPost2010PropOp36
 70
     1
102
RTVSPost2010Prop37
 90
       50
102
RTVSPost2010PropOp37
 70
     1
102
RTVSPost2010Prop38
140
0.0
102
RTVSPost2010PropOp38
 70
     1
102
RTVSPost2010Prop39
140
1.0
102
RTVSPost2010PropOp39
 70
     1
102
RTVSPost2010Prop40
 90
        0
102
RTVSPost2010PropOp40
 70
     1
102
RTVSPost2010Prop41ColorIndex
 90
       18
102
RTVSPost2010Prop41ColorRGB
 90
        0
102
RTVSPost2010PropOp41
 70
     1
102
RTVSPost2010Prop42
 90
       50
102
RTVSPost2010PropOp42
 70
     1
102
RTVSPost2010Prop43
 90
        3
102
RTVSPost2010PropOp43
 70
     1
102
RTVSPost2010Prop44ColorIndex
 90
        5
102
RTVSPost2010Prop44ColorRGB
 90
      255
102
RTVSPost2010PropOp44
 70
     1
102
RTVSPost2010Prop45
280
     0
102
RTVSPost2010PropOp45
 70
     1
102
RTVSPost2010Prop46
 90
       50
102
RTVSPost2010PropOp46
 70
     1
102
RTVSPost2010Prop47
 90
       50
102
RTVSPost2010PropOp47
 70
     1
102
RTVSPost2010Prop48
 90
       50
102
RTVSPost2010PropOp48
 70
     1
102
RTVSPost2010Prop49
280
     0
102
RTVSPost2010PropOp49
 70
     1
102
RTVSPost2010Prop50
 90
       50
102
RTVSPost2010PropOp50
 70
     1
102
RTVSPost2010Prop51ColorIndex
 90
      256
102
RTVSPost2010Prop51ColorRGB
 90
-16777216
102
RTVSPost2010PropOp51
 70
     0
102
RTVSPost2010Prop52
140
1.0
102
RTVSPost2010PropOp52
 70
     0
102
RTVSPost2010Prop53
 90
        2
102
RTVSPost2010PropOp53
 70
     1
102
RTVSPost2010Prop54
  1
strokes_ogs.tif
102
RTVSPost2010PropOp54
 70
     1
102
RTVSPost2010Prop55
280
     0
102
RTVSPost2010PropOp55
 70
     1
102
RTVSPost2010Prop56
140
1.0
102
RTVSPost2010PropOp56
 70
     1
102
RTVSPost2010Prop57
140
1.0
102
RTVSPost2010PropOp57
 70
     1
102
RTVSPropertyOp0
 70
     1
102
RTVSPropertyOp1
 70
     1
102
RTVSPropertyOp2
 70
     1
102
RTVSPropertyOp3
 70
     1
102
RTVSPropertyOp4
 70
     1
102
RTVSPropertyOp5
 70
     1
102
RTVSPropertyOp6
 70
     1
102
RTVSPropertyOp7
 70
     1
102
RTVSPropertyOp8
 70
     1
102
RTVSPropertyOp9
 70
     1
102
RTVSPropertyOp10
 70
     1
102
RTVSPropertyOp11
 70
     1
102
RTVSPropertyOp12
 70
     1
102
RTVSPropertyOp13
 70
     1
102
RTVSPropertyOp14
 70
     1
102
RTVSPropertyOp15
 70
     1
102
RTVSPropertyOp16
 70
     1
102
RTVSPropertyOp17
 70
     1
102
RTVSPropertyOp18
 70
     1
102
RTVSPropertyOp19
 70
     1
102
RTVSPropertyOp20
 70
     1
102
RTVSPropertyOp21
 70
     1
102
RTVSPropertyOp22
 70
     1
102
RTVSPropertyOp23
 70
     1
102
RTVSPropertyOp24
 70
     1
102
RTVSPropertyOp25
 70
     1
102
RTVSPropertyOp26
 70
     1
102
RTVSPropertyOp27
 70
     1
102
RTVSPropertyOp28
 70
     1
102
RTVSPropertyOp29
 70
     1
102
RTVSPropertyOp30
 70
     1
102
RTVSPropertyOp31
 70
     1
102
RTVSPropertyOp32
 70
     1
102
RTVSPropertyOp33
 70
     1
102
RTVSPropertyOp34
 70
     1
102
RTVSPropertyOp35
 70
     1
102
RTVSPropertyOp36
 70
     1
102
RTVSPropertyOp37
 70
     1
102
RTVSPropertyOp38
 70
     1
102
RTVSPropertyOp39
 70
     1
102
RTVSPropertyOp40
 70
     1
102
RTVSPropertyOp41
 70
     1
102
RTVSPropertyOp42
 70
     1
102
RTVSPropertyOp43
 70
     1
102
RTVSPropertyOp44
 70
     1
102
RTVSPropertyOp45
 70
     1
102
RTVSPropertyOp46
 70
     1
102
RTVSPropertyOp47
 70
     1
102
RTVSPropertyOp48
 70
     1
102
RTVSPropertyOp49
 70
     1
102
RTVSPropertyOp50
 70
     1
102
RTVSPropertyOp51
 70
     0
102
RTVSPropertyOp52
 70
     0
102
RTVSPropertyOp53
 70
     1
102
RTVSPropertyOp54
 70
     1
102
RTVSPropertyOp55
 70
     1
102
RTVSPropertyOp56
 70
     1
102
RTVSPropertyOp57
 70
     1
102
RTVSPropertyOp58
 70
     1
102
RTVSPropertyOp59
 70
     1
102
RTVSPropertyOp60
 70
     1
102
RTVSPropertyOp61
 70
     1
102
RTVSPropertyOp62
 70
     1
  0
XRECORD
  5
68A
102
{ACAD_REACTORS
330
689
102
}
330
689
100
AcDbXrecord
280
     1
102
RTVSPost2010Prop28
280
     0
102
RTVSPost2010PropOp28
 70
     1
102
RTVSPost2010Prop29
280
     1
102
RTVSPost2010PropOp29
 70
     1
102
RTVSPost2010Prop30
280
     1
102
RTVSPost2010PropOp30
 70
     1
102
RTVSPost2010Prop31
280
     0
102
RTVSPost2010PropOp31
 70
     1
102
RTVSPost2010Prop32
280
     0
102
RTVSPost2010PropOp32
 70
     1
102
RTVSPost2010Prop33
280
     0
102
RTVSPost2010PropOp33
 70
     1
102
RTVSPost2010Prop34
280
     0
102
RTVSPost2010PropOp34
 70
     1
102
RTVSPost2010Prop35
280
     0
102
RTVSPost2010PropOp35
 70
     1
102
RTVSPost2010Prop36
280
     0
102
RTVSPost2010PropOp36
 70
     1
102
RTVSPost2010Prop37
 90
       50
102
RTVSPost2010PropOp37
 70
     1
102
RTVSPost2010Prop38
140
0.0
102
RTVSPost2010PropOp38
 70
     1
102
RTVSPost2010Prop39
140
1.0
102
RTVSPost2010PropOp39
 70
     1
102
RTVSPost2010Prop40
 90
        0
102
RTVSPost2010PropOp40
 70
     1
102
RTVSPost2010Prop41ColorIndex
 90
       18
102
RTVSPost2010Prop41ColorRGB
 90
        0
102
RTVSPost2010PropOp41
 70
     1
102
RTVSPost2010Prop42
 90
       50
102
RTVSPost2010PropOp42
 70
     1
102
RTVSPost2010Prop43
 90
        3
102
RTVSPost2010PropOp43
 70
     1
102
RTVSPost2010Prop44ColorIndex
 90
        5
102
RTVSPost2010Prop44ColorRGB
 90
      255
102
RTVSPost2010PropOp44
 70
     1
102
RTVSPost2010Prop45
280
     0
102
RTVSPost2010PropOp45
 70
     1
102
RTVSPost2010Prop46
 90
       50
102
RTVSPost2010PropOp46
 70
     1
102
RTVSPost2010Prop47
 90
       50
102
RTVSPost2010PropOp47
 70
     1
102
RTVSPost2010Prop48
 90
       50
102
RTVSPost2010PropOp48
 70
     1
102
RTVSPost2010Prop49
280
     0
102
RTVSPost2010PropOp49
 70
     1
102
RTVSPost2010Prop50
 90
       50
102
RTVSPost2010PropOp50
 70
     1
102
RTVSPost2010Prop51ColorIndex
 90
      256
102
RTVSPost2010Prop51ColorRGB
 90
-16777216
102
RTVSPost2010PropOp51
 70
     0
102
RTVSPost2010Prop52
140
1.0
102
RTVSPost2010PropOp52
 70
     0
102
RTVSPost2010Prop53
 90
        2
102
RTVSPost2010PropOp53
 70
     1
102
RTVSPost2010Prop54
  1
strokes_ogs.tif
102
RTVSPost2010PropOp54
 70
     1
102
RTVSPost2010Prop55
280
     0
102
RTVSPost2010PropOp55
 70
     1
102
RTVSPost2010Prop56
140
1.0
102
RTVSPost2010PropOp56
 70
     1
102
RTVSPost2010Prop57
140
1.0
102
RTVSPost2010PropOp57
 70
     1
102
RTVSPropertyOp0
 70
     1
102
RTVSPropertyOp1
 70
     1
102
RTVSPropertyOp2
 70
     1
102
RTVSPropertyOp3
 70
     1
102
RTVSPropertyOp4
 70
     1
102
RTVSPropertyOp5
 70
     1
102
RTVSPropertyOp6
 70
     1
102
RTVSPropertyOp7
 70
     1
102
RTVSPropertyOp8
 70
     1
102
RTVSPropertyOp9
 70
     1
102
RTVSPropertyOp10
 70
     1
102
RTVSPropertyOp11
 70
     1
102
RTVSPropertyOp12
 70
     1
102
RTVSPropertyOp13
 70
     1
102
RTVSPropertyOp14
 70
     1
102
RTVSPropertyOp15
 70
     1
102
RTVSPropertyOp16
 70
     1
102
RTVSPropertyOp17
 70
     1
102
RTVSPropertyOp18
 70
     1
102
RTVSPropertyOp19
 70
     1
102
RTVSPropertyOp20
 70
     1
102
RTVSPropertyOp21
 70
     1
102
RTVSPropertyOp22
 70
     1
102
RTVSPropertyOp23
 70
     1
102
RTVSPropertyOp24
 70
     1
102
RTVSPropertyOp25
 70
     1
102
RTVSPropertyOp26
 70
     1
102
RTVSPropertyOp27
 70
     1
102
RTVSPropertyOp28
 70
     1
102
RTVSPropertyOp29
 70
     1
102
RTVSPropertyOp30
 70
     1
102
RTVSPropertyOp31
 70
     1
102
RTVSPropertyOp32
 70
     1
102
RTVSPropertyOp33
 70
     1
102
RTVSPropertyOp34
 70
     1
102
RTVSPropertyOp35
 70
     1
102
RTVSPropertyOp36
 70
     1
102
RTVSPropertyOp37
 70
     1
102
RTVSPropertyOp38
 70
     1
102
RTVSPropertyOp39
 70
     1
102
RTVSPropertyOp40
 70
     1
102
RTVSPropertyOp41
 70
     1
102
RTVSPropertyOp42
 70
     1
102
RTVSPropertyOp43
 70
     1
102
RTVSPropertyOp44
 70
     1
102
RTVSPropertyOp45
 70
     1
102
RTVSPropertyOp46
 70
     1
102
RTVSPropertyOp47
 70
     1
102
RTVSPropertyOp48
 70
     1
102
RTVSPropertyOp49
 70
     1
102
RTVSPropertyOp50
 70
     1
102
RTVSPropertyOp51
 70
     0
102
RTVSPropertyOp52
 70
     0
102
RTVSPropertyOp53
 70
     1
102
RTVSPropertyOp54
 70
     1
102
RTVSPropertyOp55
 70
     1
102
RTVSPropertyOp56
 70
     1
102
RTVSPropertyOp57
 70
     1
102
RTVSPropertyOp58
 70
     1
102
RTVSPropertyOp59
 70
     1
102
RTVSPropertyOp60
 70
     1
102
RTVSPropertyOp61
 70
     1
102
RTVSPropertyOp62
 70
     1
  0
XRECORD
  5
68C
102
{ACAD_REACTORS
330
68B
102
}
330
68B
100
AcDbXrecord
280
     1
102
RTVSPost2010Prop28
280
     0
102
RTVSPost2010PropOp28
 70
     1
102
RTVSPost2010Prop29
280
     1
102
RTVSPost2010PropOp29
 70
     1
102
RTVSPost2010Prop30
280
     1
102
RTVSPost2010PropOp30
 70
     1
102
RTVSPost2010Prop31
280
     0
102
RTVSPost2010PropOp31
 70
     1
102
RTVSPost2010Prop32
280
     0
102
RTVSPost2010PropOp32
 70
     1
102
RTVSPost2010Prop33
280
     0
102
RTVSPost2010PropOp33
 70
     1
102
RTVSPost2010Prop34
280
     0
102
RTVSPost2010PropOp34
 70
     1
102
RTVSPost2010Prop35
280
     0
102
RTVSPost2010PropOp35
 70
     1
102
RTVSPost2010Prop36
280
     0
102
RTVSPost2010PropOp36
 70
     1
102
RTVSPost2010Prop37
 90
       50
102
RTVSPost2010PropOp37
 70
     1
102
RTVSPost2010Prop38
140
0.0
102
RTVSPost2010PropOp38
 70
     1
102
RTVSPost2010Prop39
140
1.0
102
RTVSPost2010PropOp39
 70
     1
102
RTVSPost2010Prop40
 90
        0
102
RTVSPost2010PropOp40
 70
     1
102
RTVSPost2010Prop41ColorIndex
 90
       18
102
RTVSPost2010Prop41ColorRGB
 90
        0
102
RTVSPost2010PropOp41
 70
     1
102
RTVSPost2010Prop42
 90
       50
102
RTVSPost2010PropOp42
 70
     1
102
RTVSPost2010Prop43
 90
        3
102
RTVSPost2010PropOp43
 70
     1
102
RTVSPost2010Prop44ColorIndex
 90
        5
102
RTVSPost2010Prop44ColorRGB
 90
      255
102
RTVSPost2010PropOp44
 70
     1
102
RTVSPost2010Prop45
280
     0
102
RTVSPost2010PropOp45
 70
     1
102
RTVSPost2010Prop46
 90
       50
102
RTVSPost2010PropOp46
 70
     1
102
RTVSPost2010Prop47
 90
       50
102
RTVSPost2010PropOp47
 70
     1
102
RTVSPost2010Prop48
 90
       50
102
RTVSPost2010PropOp48
 70
     1
102
RTVSPost2010Prop49
280
     0
102
RTVSPost2010PropOp49
 70
     1
102
RTVSPost2010Prop50
 90
       50
102
RTVSPost2010PropOp50
 70
     1
102
RTVSPost2010Prop51ColorIndex
 90
      256
102
RTVSPost2010Prop51ColorRGB
 90
-16777216
102
RTVSPost2010PropOp51
 70
     0
102
RTVSPost2010Prop52
140
1.0
102
RTVSPost2010PropOp52
 70
     0
102
RTVSPost2010Prop53
 90
        2
102
RTVSPost2010PropOp53
 70
     1
102
RTVSPost2010Prop54
  1
strokes_ogs.tif
102
RTVSPost2010PropOp54
 70
     1
102
RTVSPost2010Prop55
280
     0
102
RTVSPost2010PropOp55
 70
     1
102
RTVSPost2010Prop56
140
1.0
102
RTVSPost2010PropOp56
 70
     1
102
RTVSPost2010Prop57
140
1.0
102
RTVSPost2010PropOp57
 70
     1
102
RTVSPropertyOp0
 70
     1
102
RTVSPropertyOp1
 70
     1
102
RTVSPropertyOp2
 70
     1
102
RTVSPropertyOp3
 70
     1
102
RTVSPropertyOp4
 70
     1
102
RTVSPropertyOp5
 70
     1
102
RTVSPropertyOp6
 70
     1
102
RTVSPropertyOp7
 70
     1
102
RTVSPropertyOp8
 70
     1
102
RTVSPropertyOp9
 70
     1
102
RTVSPropertyOp10
 70
     1
102
RTVSPropertyOp11
 70
     1
102
RTVSPropertyOp12
 70
     1
102
RTVSPropertyOp13
 70
     1
102
RTVSPropertyOp14
 70
     1
102
RTVSPropertyOp15
 70
     1
102
RTVSPropertyOp16
 70
     1
102
RTVSPropertyOp17
 70
     1
102
RTVSPropertyOp18
 70
     1
102
RTVSPropertyOp19
 70
     1
102
RTVSPropertyOp20
 70
     1
102
RTVSPropertyOp21
 70
     1
102
RTVSPropertyOp22
 70
     1
102
RTVSPropertyOp23
 70
     1
102
RTVSPropertyOp24
 70
     1
102
RTVSPropertyOp25
 70
     1
102
RTVSPropertyOp26
 70
     1
102
RTVSPropertyOp27
 70
     1
102
RTVSPropertyOp28
 70
     1
102
RTVSPropertyOp29
 70
     1
102
RTVSPropertyOp30
 70
     1
102
RTVSPropertyOp31
 70
     1
102
RTVSPropertyOp32
 70
     1
102
RTVSPropertyOp33
 70
     1
102
RTVSPropertyOp34
 70
     1
102
RTVSPropertyOp35
 70
     1
102
RTVSPropertyOp36
 70
     1
102
RTVSPropertyOp37
 70
     1
102
RTVSPropertyOp38
 70
     1
102
RTVSPropertyOp39
 70
     1
102
RTVSPropertyOp40
 70
     1
102
RTVSPropertyOp41
 70
     1
102
RTVSPropertyOp42
 70
     1
102
RTVSPropertyOp43
 70
     1
102
RTVSPropertyOp44
 70
     1
102
RTVSPropertyOp45
 70
     1
102
RTVSPropertyOp46
 70
     1
102
RTVSPropertyOp47
 70
     1
102
RTVSPropertyOp48
 70
     1
102
RTVSPropertyOp49
 70
     1
102
RTVSPropertyOp50
 70
     1
102
RTVSPropertyOp51
 70
     0
102
RTVSPropertyOp52
 70
     0
102
RTVSPropertyOp53
 70
     1
102
RTVSPropertyOp54
 70
     1
102
RTVSPropertyOp55
 70
     1
102
RTVSPropertyOp56
 70
     1
102
RTVSPropertyOp57
 70
     1
102
RTVSPropertyOp58
 70
     1
102
RTVSPropertyOp59
 70
     1
102
RTVSPropertyOp60
 70
     1
102
RTVSPropertyOp61
 70
     1
102
RTVSPropertyOp62
 70
     1
  0
XRECORD
  5
68E
102
{ACAD_REACTORS
330
68D
102
}
330
68D
100
AcDbXrecord
280
     1
102
RTVSPost2010Prop28
280
     0
102
RTVSPost2010PropOp28
 70
     1
102
RTVSPost2010Prop29
280
     1
102
RTVSPost2010PropOp29
 70
     1
102
RTVSPost2010Prop30
280
     1
102
RTVSPost2010PropOp30
 70
     1
102
RTVSPost2010Prop31
280
     0
102
RTVSPost2010PropOp31
 70
     1
102
RTVSPost2010Prop32
280
     0
102
RTVSPost2010PropOp32
 70
     1
102
RTVSPost2010Prop33
280
     0
102
RTVSPost2010PropOp33
 70
     1
102
RTVSPost2010Prop34
280
     0
102
RTVSPost2010PropOp34
 70
     1
102
RTVSPost2010Prop35
280
     0
102
RTVSPost2010PropOp35
 70
     1
102
RTVSPost2010Prop36
280
     0
102
RTVSPost2010PropOp36
 70
     1
102
RTVSPost2010Prop37
 90
       50
102
RTVSPost2010PropOp37
 70
     1
102
RTVSPost2010Prop38
140
0.0
102
RTVSPost2010PropOp38
 70
     1
102
RTVSPost2010Prop39
140
1.0
102
RTVSPost2010PropOp39
 70
     1
102
RTVSPost2010Prop40
 90
        0
102
RTVSPost2010PropOp40
 70
     1
102
RTVSPost2010Prop41ColorIndex
 90
       18
102
RTVSPost2010Prop41ColorRGB
 90
        0
102
RTVSPost2010PropOp41
 70
     1
102
RTVSPost2010Prop42
 90
       50
102
RTVSPost2010PropOp42
 70
     1
102
RTVSPost2010Prop43
 90
        3
102
RTVSPost2010PropOp43
 70
     1
102
RTVSPost2010Prop44ColorIndex
 90
        5
102
RTVSPost2010Prop44ColorRGB
 90
      255
102
RTVSPost2010PropOp44
 70
     1
102
RTVSPost2010Prop45
280
     0
102
RTVSPost2010PropOp45
 70
     1
102
RTVSPost2010Prop46
 90
       50
102
RTVSPost2010PropOp46
 70
     1
102
RTVSPost2010Prop47
 90
       50
102
RTVSPost2010PropOp47
 70
     1
102
RTVSPost2010Prop48
 90
       50
102
RTVSPost2010PropOp48
 70
     1
102
RTVSPost2010Prop49
280
     0
102
RTVSPost2010PropOp49
 70
     1
102
RTVSPost2010Prop50
 90
       50
102
RTVSPost2010PropOp50
 70
     1
102
RTVSPost2010Prop51ColorIndex
 90
      256
102
RTVSPost2010Prop51ColorRGB
 90
-16777216
102
RTVSPost2010PropOp51
 70
     0
102
RTVSPost2010Prop52
140
1.0
102
RTVSPost2010PropOp52
 70
     0
102
RTVSPost2010Prop53
 90
        2
102
RTVSPost2010PropOp53
 70
     1
102
RTVSPost2010Prop54
  1
strokes_ogs.tif
102
RTVSPost2010PropOp54
 70
     1
102
RTVSPost2010Prop55
280
     0
102
RTVSPost2010PropOp55
 70
     1
102
RTVSPost2010Prop56
140
1.0
102
RTVSPost2010PropOp56
 70
     1
102
RTVSPost2010Prop57
140
1.0
102
RTVSPost2010PropOp57
 70
     1
102
RTVSPropertyOp0
 70
     1
102
RTVSPropertyOp1
 70
     1
102
RTVSPropertyOp2
 70
     1
102
RTVSPropertyOp3
 70
     1
102
RTVSPropertyOp4
 70
     1
102
RTVSPropertyOp5
 70
     1
102
RTVSPropertyOp6
 70
     1
102
RTVSPropertyOp7
 70
     1
102
RTVSPropertyOp8
 70
     1
102
RTVSPropertyOp9
 70
     1
102
RTVSPropertyOp10
 70
     1
102
RTVSPropertyOp11
 70
     1
102
RTVSPropertyOp12
 70
     1
102
RTVSPropertyOp13
 70
     1
102
RTVSPropertyOp14
 70
     1
102
RTVSPropertyOp15
 70
     1
102
RTVSPropertyOp16
 70
     1
102
RTVSPropertyOp17
 70
     1
102
RTVSPropertyOp18
 70
     1
102
RTVSPropertyOp19
 70
     1
102
RTVSPropertyOp20
 70
     1
102
RTVSPropertyOp21
 70
     1
102
RTVSPropertyOp22
 70
     1
102
RTVSPropertyOp23
 70
     1
102
RTVSPropertyOp24
 70
     1
102
RTVSPropertyOp25
 70
     1
102
RTVSPropertyOp26
 70
     1
102
RTVSPropertyOp27
 70
     1
102
RTVSPropertyOp28
 70
     1
102
RTVSPropertyOp29
 70
     1
102
RTVSPropertyOp30
 70
     1
102
RTVSPropertyOp31
 70
     1
102
RTVSPropertyOp32
 70
     1
102
RTVSPropertyOp33
 70
     1
102
RTVSPropertyOp34
 70
     1
102
RTVSPropertyOp35
 70
     1
102
RTVSPropertyOp36
 70
     1
102
RTVSPropertyOp37
 70
     1
102
RTVSPropertyOp38
 70
     1
102
RTVSPropertyOp39
 70
     1
102
RTVSPropertyOp40
 70
     1
102
RTVSPropertyOp41
 70
     1
102
RTVSPropertyOp42
 70
     1
102
RTVSPropertyOp43
 70
     1
102
RTVSPropertyOp44
 70
     1
102
RTVSPropertyOp45
 70
     1
102
RTVSPropertyOp46
 70
     1
102
RTVSPropertyOp47
 70
     1
102
RTVSPropertyOp48
 70
     1
102
RTVSPropertyOp49
 70
     1
102
RTVSPropertyOp50
 70
     1
102
RTVSPropertyOp51
 70
     0
102
RTVSPropertyOp52
 70
     0
102
RTVSPropertyOp53
 70
     1
102
RTVSPropertyOp54
 70
     1
102
RTVSPropertyOp55
 70
     1
102
RTVSPropertyOp56
 70
     1
102
RTVSPropertyOp57
 70
     1
102
RTVSPropertyOp58
 70
     1
102
RTVSPropertyOp59
 70
     1
102
RTVSPropertyOp60
 70
     1
102
RTVSPropertyOp61
 70
     1
102
RTVSPropertyOp62
 70
     1
  0
XRECORD
  5
690
102
{ACAD_REACTORS
330
68F
102
}
330
68F
100
AcDbXrecord
280
     1
102
RTVSPost2010Prop28
280
     0
102
RTVSPost2010PropOp28
 70
     1
102
RTVSPost2010Prop29
280
     1
102
RTVSPost2010PropOp29
 70
     1
102
RTVSPost2010Prop30
280
     1
102
RTVSPost2010PropOp30
 70
     1
102
RTVSPost2010Prop31
280
     0
102
RTVSPost2010PropOp31
 70
     1
102
RTVSPost2010Prop32
280
     0
102
RTVSPost2010PropOp32
 70
     1
102
RTVSPost2010Prop33
280
     0
102
RTVSPost2010PropOp33
 70
     1
102
RTVSPost2010Prop34
280
     0
102
RTVSPost2010PropOp34
 70
     1
102
RTVSPost2010Prop35
280
     0
102
RTVSPost2010PropOp35
 70
     1
102
RTVSPost2010Prop36
280
     0
102
RTVSPost2010PropOp36
 70
     1
102
RTVSPost2010Prop37
 90
       50
102
RTVSPost2010PropOp37
 70
     1
102
RTVSPost2010Prop38
140
0.0
102
RTVSPost2010PropOp38
 70
     1
102
RTVSPost2010Prop39
140
1.0
102
RTVSPost2010PropOp39
 70
     1
102
RTVSPost2010Prop40
 90
        0
102
RTVSPost2010PropOp40
 70
     1
102
RTVSPost2010Prop41ColorIndex
 90
       18
102
RTVSPost2010Prop41ColorRGB
 90
        0
102
RTVSPost2010PropOp41
 70
     1
102
RTVSPost2010Prop42
 90
       50
102
RTVSPost2010PropOp42
 70
     1
102
RTVSPost2010Prop43
 90
        3
102
RTVSPost2010PropOp43
 70
     1
102
RTVSPost2010Prop44ColorIndex
 90
        5
102
RTVSPost2010Prop44ColorRGB
 90
      255
102
RTVSPost2010PropOp44
 70
     1
102
RTVSPost2010Prop45
280
     0
102
RTVSPost2010PropOp45
 70
     1
102
RTVSPost2010Prop46
 90
       50
102
RTVSPost2010PropOp46
 70
     1
102
RTVSPost2010Prop47
 90
       50
102
RTVSPost2010PropOp47
 70
     1
102
RTVSPost2010Prop48
 90
       50
102
RTVSPost2010PropOp48
 70
     1
102
RTVSPost2010Prop49
280
     0
102
RTVSPost2010PropOp49
 70
     1
102
RTVSPost2010Prop50
 90
       50
102
RTVSPost2010PropOp50
 70
     1
102
RTVSPost2010Prop51ColorIndex
 90
      256
102
RTVSPost2010Prop51ColorRGB
 90
-16777216
102
RTVSPost2010PropOp51
 70
     0
102
RTVSPost2010Prop52
140
1.0
102
RTVSPost2010PropOp52
 70
     0
102
RTVSPost2010Prop53
 90
        2
102
RTVSPost2010PropOp53
 70
     1
102
RTVSPost2010Prop54
  1
strokes_ogs.tif
102
RTVSPost2010PropOp54
 70
     1
102
RTVSPost2010Prop55
280
     0
102
RTVSPost2010PropOp55
 70
     1
102
RTVSPost2010Prop56
140
1.0
102
RTVSPost2010PropOp56
 70
     1
102
RTVSPost2010Prop57
140
1.0
102
RTVSPost2010PropOp57
 70
     1
102
RTVSPropertyOp0
 70
     1
102
RTVSPropertyOp1
 70
     1
102
RTVSPropertyOp2
 70
     1
102
RTVSPropertyOp3
 70
     1
102
RTVSPropertyOp4
 70
     1
102
RTVSPropertyOp5
 70
     1
102
RTVSPropertyOp6
 70
     1
102
RTVSPropertyOp7
 70
     1
102
RTVSPropertyOp8
 70
     1
102
RTVSPropertyOp9
 70
     1
102
RTVSPropertyOp10
 70
     1
102
RTVSPropertyOp11
 70
     1
102
RTVSPropertyOp12
 70
     1
102
RTVSPropertyOp13
 70
     1
102
RTVSPropertyOp14
 70
     1
102
RTVSPropertyOp15
 70
     1
102
RTVSPropertyOp16
 70
     1
102
RTVSPropertyOp17
 70
     1
102
RTVSPropertyOp18
 70
     1
102
RTVSPropertyOp19
 70
     1
102
RTVSPropertyOp20
 70
     1
102
RTVSPropertyOp21
 70
     1
102
RTVSPropertyOp22
 70
     1
102
RTVSPropertyOp23
 70
     1
102
RTVSPropertyOp24
 70
     1
102
RTVSPropertyOp25
 70
     1
102
RTVSPropertyOp26
 70
     1
102
RTVSPropertyOp27
 70
     1
102
RTVSPropertyOp28
 70
     1
102
RTVSPropertyOp29
 70
     1
102
RTVSPropertyOp30
 70
     1
102
RTVSPropertyOp31
 70
     1
102
RTVSPropertyOp32
 70
     1
102
RTVSPropertyOp33
 70
     1
102
RTVSPropertyOp34
 70
     1
102
RTVSPropertyOp35
 70
     1
102
RTVSPropertyOp36
 70
     1
102
RTVSPropertyOp37
 70
     1
102
RTVSPropertyOp38
 70
     1
102
RTVSPropertyOp39
 70
     1
102
RTVSPropertyOp40
 70
     1
102
RTVSPropertyOp41
 70
     1
102
RTVSPropertyOp42
 70
     1
102
RTVSPropertyOp43
 70
     1
102
RTVSPropertyOp44
 70
     1
102
RTVSPropertyOp45
 70
     1
102
RTVSPropertyOp46
 70
     1
102
RTVSPropertyOp47
 70
     1
102
RTVSPropertyOp48
 70
     1
102
RTVSPropertyOp49
 70
     1
102
RTVSPropertyOp50
 70
     1
102
RTVSPropertyOp51
 70
     0
102
RTVSPropertyOp52
 70
     0
102
RTVSPropertyOp53
 70
     1
102
RTVSPropertyOp54
 70
     1
102
RTVSPropertyOp55
 70
     1
102
RTVSPropertyOp56
 70
     1
102
RTVSPropertyOp57
 70
     1
102
RTVSPropertyOp58
 70
     1
102
RTVSPropertyOp59
 70
     1
102
RTVSPropertyOp60
 70
     1
102
RTVSPropertyOp61
 70
     1
102
RTVSPropertyOp62
 70
     1
  0
XRECORD
  5
698
102
{ACAD_REACTORS
330
697
102
}
330
697
100
AcDbXrecord
280
     1
102
RTVSPost2010Prop28
280
     0
102
RTVSPost2010PropOp28
 70
     1
102
RTVSPost2010Prop29
280
     1
102
RTVSPost2010PropOp29
 70
     1
102
RTVSPost2010Prop30
280
     1
102
RTVSPost2010PropOp30
 70
     1
102
RTVSPost2010Prop31
280
     0
102
RTVSPost2010PropOp31
 70
     1
102
RTVSPost2010Prop32
280
     0
102
RTVSPost2010PropOp32
 70
     1
102
RTVSPost2010Prop33
280
     0
102
RTVSPost2010PropOp33
 70
     1
102
RTVSPost2010Prop34
280
     0
102
RTVSPost2010PropOp34
 70
     1
102
RTVSPost2010Prop35
280
     0
102
RTVSPost2010PropOp35
 70
     1
102
RTVSPost2010Prop36
280
     0
102
RTVSPost2010PropOp36
 70
     1
102
RTVSPost2010Prop37
 90
       50
102
RTVSPost2010PropOp37
 70
     1
102
RTVSPost2010Prop38
140
0.0
102
RTVSPost2010PropOp38
 70
     1
102
RTVSPost2010Prop39
140
1.0
102
RTVSPost2010PropOp39
 70
     1
102
RTVSPost2010Prop40
 90
        0
102
RTVSPost2010PropOp40
 70
     1
102
RTVSPost2010Prop41ColorIndex
 90
       18
102
RTVSPost2010Prop41ColorRGB
 90
        0
102
RTVSPost2010PropOp41
 70
     1
102
RTVSPost2010Prop42
 90
       50
102
RTVSPost2010PropOp42
 70
     1
102
RTVSPost2010Prop43
 90
        3
102
RTVSPost2010PropOp43
 70
     1
102
RTVSPost2010Prop44ColorIndex
 90
        5
102
RTVSPost2010Prop44ColorRGB
 90
      255
102
RTVSPost2010PropOp44
 70
     1
102
RTVSPost2010Prop45
280
     0
102
RTVSPost2010PropOp45
 70
     1
102
RTVSPost2010Prop46
 90
       50
102
RTVSPost2010PropOp46
 70
     1
102
RTVSPost2010Prop47
 90
       50
102
RTVSPost2010PropOp47
 70
     1
102
RTVSPost2010Prop48
 90
       50
102
RTVSPost2010PropOp48
 70
     1
102
RTVSPost2010Prop49
280
     0
102
RTVSPost2010PropOp49
 70
     1
102
RTVSPost2010Prop50
 90
       50
102
RTVSPost2010PropOp50
 70
     1
102
RTVSPost2010Prop51ColorIndex
 90
      256
102
RTVSPost2010Prop51ColorRGB
 90
-16777216
102
RTVSPost2010PropOp51
 70
     0
102
RTVSPost2010Prop52
140
1.0
102
RTVSPost2010PropOp52
 70
     0
102
RTVSPost2010Prop53
 90
        2
102
RTVSPost2010PropOp53
 70
     1
102
RTVSPost2010Prop54
  1
strokes_ogs.tif
102
RTVSPost2010PropOp54
 70
     1
102
RTVSPost2010Prop55
280
     0
102
RTVSPost2010PropOp55
 70
     1
102
RTVSPost2010Prop56
140
1.0
102
RTVSPost2010PropOp56
 70
     1
102
RTVSPost2010Prop57
140
1.0
102
RTVSPost2010PropOp57
 70
     1
102
RTVSPropertyOp0
 70
     1
102
RTVSPropertyOp1
 70
     1
102
RTVSPropertyOp2
 70
     1
102
RTVSPropertyOp3
 70
     1
102
RTVSPropertyOp4
 70
     1
102
RTVSPropertyOp5
 70
     1
102
RTVSPropertyOp6
 70
     1
102
RTVSPropertyOp7
 70
     1
102
RTVSPropertyOp8
 70
     1
102
RTVSPropertyOp9
 70
     1
102
RTVSPropertyOp10
 70
     1
102
RTVSPropertyOp11
 70
     1
102
RTVSPropertyOp12
 70
     1
102
RTVSPropertyOp13
 70
     1
102
RTVSPropertyOp14
 70
     1
102
RTVSPropertyOp15
 70
     1
102
RTVSPropertyOp16
 70
     1
102
RTVSPropertyOp17
 70
     1
102
RTVSPropertyOp18
 70
     1
102
RTVSPropertyOp19
 70
     1
102
RTVSPropertyOp20
 70
     1
102
RTVSPropertyOp21
 70
     1
102
RTVSPropertyOp22
 70
     1
102
RTVSPropertyOp23
 70
     1
102
RTVSPropertyOp24
 70
     1
102
RTVSPropertyOp25
 70
     1
102
RTVSPropertyOp26
 70
     1
102
RTVSPropertyOp27
 70
     1
102
RTVSPropertyOp28
 70
     1
102
RTVSPropertyOp29
 70
     1
102
RTVSPropertyOp30
 70
     1
102
RTVSPropertyOp31
 70
     1
102
RTVSPropertyOp32
 70
     1
102
RTVSPropertyOp33
 70
     1
102
RTVSPropertyOp34
 70
     1
102
RTVSPropertyOp35
 70
     1
102
RTVSPropertyOp36
 70
     1
102
RTVSPropertyOp37
 70
     1
102
RTVSPropertyOp38
 70
     1
102
RTVSPropertyOp39
 70
     1
102
RTVSPropertyOp40
 70
     1
102
RTVSPropertyOp41
 70
     1
102
RTVSPropertyOp42
 70
     1
102
RTVSPropertyOp43
 70
     1
102
RTVSPropertyOp44
 70
     1
102
RTVSPropertyOp45
 70
     1
102
RTVSPropertyOp46
 70
     1
102
RTVSPropertyOp47
 70
     1
102
RTVSPropertyOp48
 70
     1
102
RTVSPropertyOp49
 70
     1
102
RTVSPropertyOp50
 70
     1
102
RTVSPropertyOp51
 70
     0
102
RTVSPropertyOp52
 70
     0
102
RTVSPropertyOp53
 70
     1
102
RTVSPropertyOp54
 70
     1
102
RTVSPropertyOp55
 70
     1
102
RTVSPropertyOp56
 70
     1
102
RTVSPropertyOp57
 70
     1
102
RTVSPropertyOp58
 70
     1
102
RTVSPropertyOp59
 70
     1
102
RTVSPropertyOp60
 70
     1
102
RTVSPropertyOp61
 70
     1
102
RTVSPropertyOp62
 70
     1
  0
XRECORD
  5
6AA
102
{ACAD_REACTORS
330
6A9
102
}
330
6A9
100
AcDbXrecord
280
     1
102
RTVSPost2010Prop28
280
     0
102
RTVSPost2010PropOp28
 70
     1
102
RTVSPost2010Prop29
280
     1
102
RTVSPost2010PropOp29
 70
     1
102
RTVSPost2010Prop30
280
     1
102
RTVSPost2010PropOp30
 70
     1
102
RTVSPost2010Prop31
280
     0
102
RTVSPost2010PropOp31
 70
     1
102
RTVSPost2010Prop32
280
     0
102
RTVSPost2010PropOp32
 70
     1
102
RTVSPost2010Prop33
280
     0
102
RTVSPost2010PropOp33
 70
     1
102
RTVSPost2010Prop34
280
     0
102
RTVSPost2010PropOp34
 70
     1
102
RTVSPost2010Prop35
280
     0
102
RTVSPost2010PropOp35
 70
     1
102
RTVSPost2010Prop36
280
     0
102
RTVSPost2010PropOp36
 70
     1
102
RTVSPost2010Prop37
 90
       50
102
RTVSPost2010PropOp37
 70
     1
102
RTVSPost2010Prop38
140
0.0
102
RTVSPost2010PropOp38
 70
     1
102
RTVSPost2010Prop39
140
1.0
102
RTVSPost2010PropOp39
 70
     1
102
RTVSPost2010Prop40
 90
        0
102
RTVSPost2010PropOp40
 70
     1
102
RTVSPost2010Prop41ColorIndex
 90
       18
102
RTVSPost2010Prop41ColorRGB
 90
        0
102
RTVSPost2010PropOp41
 70
     1
102
RTVSPost2010Prop42
 90
       50
102
RTVSPost2010PropOp42
 70
     1
102
RTVSPost2010Prop43
 90
        3
102
RTVSPost2010PropOp43
 70
     1
102
RTVSPost2010Prop44ColorIndex
 90
        5
102
RTVSPost2010Prop44ColorRGB
 90
      255
102
RTVSPost2010PropOp44
 70
     1
102
RTVSPost2010Prop45
280
     0
102
RTVSPost2010PropOp45
 70
     1
102
RTVSPost2010Prop46
 90
       50
102
RTVSPost2010PropOp46
 70
     1
102
RTVSPost2010Prop47
 90
       50
102
RTVSPost2010PropOp47
 70
     1
102
RTVSPost2010Prop48
 90
       50
102
RTVSPost2010PropOp48
 70
     1
102
RTVSPost2010Prop49
280
     0
102
RTVSPost2010PropOp49
 70
     1
102
RTVSPost2010Prop50
 90
       50
102
RTVSPost2010PropOp50
 70
     1
102
RTVSPost2010Prop51ColorIndex
 90
      256
102
RTVSPost2010Prop51ColorRGB
 90
-16777216
102
RTVSPost2010PropOp51
 70
     0
102
RTVSPost2010Prop52
140
1.0
102
RTVSPost2010PropOp52
 70
     0
102
RTVSPost2010Prop53
 90
        2
102
RTVSPost2010PropOp53
 70
     1
102
RTVSPost2010Prop54
  1
strokes_ogs.tif
102
RTVSPost2010PropOp54
 70
     1
102
RTVSPost2010Prop55
280
     0
102
RTVSPost2010PropOp55
 70
     1
102
RTVSPost2010Prop56
140
1.0
102
RTVSPost2010PropOp56
 70
     1
102
RTVSPost2010Prop57
140
1.0
102
RTVSPost2010PropOp57
 70
     1
102
RTVSPropertyOp0
 70
     0
102
RTVSPropertyOp1
 70
     0
102
RTVSPropertyOp2
 70
     0
102
RTVSPropertyOp3
 70
     0
102
RTVSPropertyOp4
 70
     0
102
RTVSPropertyOp5
 70
     0
102
RTVSPropertyOp6
 70
     0
102
RTVSPropertyOp7
 70
     0
102
RTVSPropertyOp8
 70
     0
102
RTVSPropertyOp9
 70
     0
102
RTVSPropertyOp10
 70
     0
102
RTVSPropertyOp11
 70
     0
102
RTVSPropertyOp12
 70
     0
102
RTVSPropertyOp13
 70
     0
102
RTVSPropertyOp14
 70
     2
102
RTVSPropertyOp15
 70
     0
102
RTVSPropertyOp16
 70
     0
102
RTVSPropertyOp17
 70
     0
102
RTVSPropertyOp18
 70
     0
102
RTVSPropertyOp19
 70
     0
102
RTVSPropertyOp20
 70
     0
102
RTVSPropertyOp21
 70
     0
102
RTVSPropertyOp22
 70
     0
102
RTVSPropertyOp23
 70
     0
102
RTVSPropertyOp24
 70
     0
102
RTVSPropertyOp25
 70
     0
102
RTVSPropertyOp26
 70
     0
102
RTVSPropertyOp27
 70
     0
102
RTVSPropertyOp28
 70
     1
102
RTVSPropertyOp29
 70
     1
102
RTVSPropertyOp30
 70
     1
102
RTVSPropertyOp31
 70
     1
102
RTVSPropertyOp32
 70
     1
102
RTVSPropertyOp33
 70
     1
102
RTVSPropertyOp34
 70
     1
102
RTVSPropertyOp35
 70
     1
102
RTVSPropertyOp36
 70
     1
102
RTVSPropertyOp37
 70
     1
102
RTVSPropertyOp38
 70
     1
102
RTVSPropertyOp39
 70
     1
102
RTVSPropertyOp40
 70
     1
102
RTVSPropertyOp41
 70
     1
102
RTVSPropertyOp42
 70
     1
102
RTVSPropertyOp43
 70
     1
102
RTVSPropertyOp44
 70
     1
102
RTVSPropertyOp45
 70
     1
102
RTVSPropertyOp46
 70
     1
102
RTVSPropertyOp47
 70
     1
102
RTVSPropertyOp48
 70
     1
102
RTVSPropertyOp49
 70
     1
102
RTVSPropertyOp50
 70
     1
102
RTVSPropertyOp51
 70
     0
102
RTVSPropertyOp52
 70
     0
102
RTVSPropertyOp53
 70
     1
102
RTVSPropertyOp54
 70
     1
102
RTVSPropertyOp55
 70
     1
102
RTVSPropertyOp56
 70
     1
102
RTVSPropertyOp57
 70
     1
102
RTVSPropertyOp58
 70
     1
102
RTVSPropertyOp59
 70
     1
102
RTVSPropertyOp60
 70
     1
102
RTVSPropertyOp61
 70
     1
102
RTVSPropertyOp62
 70
     1
  0
XRECORD
  5
6A4
102
{ACAD_REACTORS
330
6A3
102
}
330
6A3
100
AcDbXrecord
280
     1
102
RTVSPost2010Prop28
280
     0
102
RTVSPost2010PropOp28
 70
     1
102
RTVSPost2010Prop29
280
     1
102
RTVSPost2010PropOp29
 70
     1
102
RTVSPost2010Prop30
280
     1
102
RTVSPost2010PropOp30
 70
     1
102
RTVSPost2010Prop31
280
     0
102
RTVSPost2010PropOp31
 70
     1
102
RTVSPost2010Prop32
280
     0
102
RTVSPost2010PropOp32
 70
     1
102
RTVSPost2010Prop33
280
     0
102
RTVSPost2010PropOp33
 70
     1
102
RTVSPost2010Prop34
280
     0
102
RTVSPost2010PropOp34
 70
     1
102
RTVSPost2010Prop35
280
     0
102
RTVSPost2010PropOp35
 70
     1
102
RTVSPost2010Prop36
280
     0
102
RTVSPost2010PropOp36
 70
     1
102
RTVSPost2010Prop37
 90
       50
102
RTVSPost2010PropOp37
 70
     1
102
RTVSPost2010Prop38
140
0.0
102
RTVSPost2010PropOp38
 70
     1
102
RTVSPost2010Prop39
140
1.0
102
RTVSPost2010PropOp39
 70
     1
102
RTVSPost2010Prop40
 90
        0
102
RTVSPost2010PropOp40
 70
     1
102
RTVSPost2010Prop41ColorIndex
 90
       18
102
RTVSPost2010Prop41ColorRGB
 90
        0
102
RTVSPost2010PropOp41
 70
     1
102
RTVSPost2010Prop42
 90
       50
102
RTVSPost2010PropOp42
 70
     1
102
RTVSPost2010Prop43
 90
        3
102
RTVSPost2010PropOp43
 70
     1
102
RTVSPost2010Prop44ColorIndex
 90
        5
102
RTVSPost2010Prop44ColorRGB
 90
      255
102
RTVSPost2010PropOp44
 70
     1
102
RTVSPost2010Prop45
280
     0
102
RTVSPost2010PropOp45
 70
     1
102
RTVSPost2010Prop46
 90
       50
102
RTVSPost2010PropOp46
 70
     1
102
RTVSPost2010Prop47
 90
       50
102
RTVSPost2010PropOp47
 70
     1
102
RTVSPost2010Prop48
 90
       50
102
RTVSPost2010PropOp48
 70
     1
102
RTVSPost2010Prop49
280
     0
102
RTVSPost2010PropOp49
 70
     1
102
RTVSPost2010Prop50
 90
       50
102
RTVSPost2010PropOp50
 70
     1
102
RTVSPost2010Prop51ColorIndex
 90
      256
102
RTVSPost2010Prop51ColorRGB
 90
-16777216
102
RTVSPost2010PropOp51
 70
     0
102
RTVSPost2010Prop52
140
1.0
102
RTVSPost2010PropOp52
 70
     0
102
RTVSPost2010Prop53
 90
        2
102
RTVSPost2010PropOp53
 70
     1
102
RTVSPost2010Prop54
  1
strokes_ogs.tif
102
RTVSPost2010PropOp54
 70
     1
102
RTVSPost2010Prop55
280
     0
102
RTVSPost2010PropOp55
 70
     1
102
RTVSPost2010Prop56
140
1.0
102
RTVSPost2010PropOp56
 70
     1
102
RTVSPost2010Prop57
140
1.0
102
RTVSPost2010PropOp57
 70
     1
102
RTVSPropertyOp0
 70
     1
102
RTVSPropertyOp1
 70
     1
102
RTVSPropertyOp2
 70
     1
102
RTVSPropertyOp3
 70
     1
102
RTVSPropertyOp4
 70
     1
102
RTVSPropertyOp5
 70
     1
102
RTVSPropertyOp6
 70
     1
102
RTVSPropertyOp7
 70
     1
102
RTVSPropertyOp8
 70
     1
102
RTVSPropertyOp9
 70
     1
102
RTVSPropertyOp10
 70
     1
102
RTVSPropertyOp11
 70
     1
102
RTVSPropertyOp12
 70
     1
102
RTVSPropertyOp13
 70
     1
102
RTVSPropertyOp14
 70
     1
102
RTVSPropertyOp15
 70
     1
102
RTVSPropertyOp16
 70
     1
102
RTVSPropertyOp17
 70
     1
102
RTVSPropertyOp18
 70
     1
102
RTVSPropertyOp19
 70
     1
102
RTVSPropertyOp20
 70
     1
102
RTVSPropertyOp21
 70
     1
102
RTVSPropertyOp22
 70
     1
102
RTVSPropertyOp23
 70
     1
102
RTVSPropertyOp24
 70
     1
102
RTVSPropertyOp25
 70
     1
102
RTVSPropertyOp26
 70
     1
102
RTVSPropertyOp27
 70
     1
102
RTVSPropertyOp28
 70
     1
102
RTVSPropertyOp29
 70
     1
102
RTVSPropertyOp30
 70
     1
102
RTVSPropertyOp31
 70
     1
102
RTVSPropertyOp32
 70
     1
102
RTVSPropertyOp33
 70
     1
102
RTVSPropertyOp34
 70
     1
102
RTVSPropertyOp35
 70
     1
102
RTVSPropertyOp36
 70
     1
102
RTVSPropertyOp37
 70
     1
102
RTVSPropertyOp38
 70
     1
102
RTVSPropertyOp39
 70
     1
102
RTVSPropertyOp40
 70
     1
102
RTVSPropertyOp41
 70
     1
102
RTVSPropertyOp42
 70
     1
102
RTVSPropertyOp43
 70
     1
102
RTVSPropertyOp44
 70
     1
102
RTVSPropertyOp45
 70
     1
102
RTVSPropertyOp46
 70
     1
102
RTVSPropertyOp47
 70
     1
102
RTVSPropertyOp48
 70
     1
102
RTVSPropertyOp49
 70
     1
102
RTVSPropertyOp50
 70
     1
102
RTVSPropertyOp51
 70
     0
102
RTVSPropertyOp52
 70
     0
102
RTVSPropertyOp53
 70
     1
102
RTVSPropertyOp54
 70
     1
102
RTVSPropertyOp55
 70
     1
102
RTVSPropertyOp56
 70
     1
102
RTVSPropertyOp57
 70
     1
102
RTVSPropertyOp58
 70
     1
102
RTVSPropertyOp59
 70
     1
102
RTVSPropertyOp60
 70
     1
102
RTVSPropertyOp61
 70
     1
102
RTVSPropertyOp62
 70
     1
  0
XRECORD
  5
6AC
102
{ACAD_REACTORS
330
6AB
102
}
330
6AB
100
AcDbXrecord
280
     1
102
RTVSPost2010Prop28
280
     0
102
RTVSPost2010PropOp28
 70
     1
102
RTVSPost2010Prop29
280
     1
102
RTVSPost2010PropOp29
 70
     1
102
RTVSPost2010Prop30
280
     1
102
RTVSPost2010PropOp30
 70
     1
102
RTVSPost2010Prop31
280
     0
102
RTVSPost2010PropOp31
 70
     1
102
RTVSPost2010Prop32
280
     0
102
RTVSPost2010PropOp32
 70
     1
102
RTVSPost2010Prop33
280
     0
102
RTVSPost2010PropOp33
 70
     1
102
RTVSPost2010Prop34
280
     0
102
RTVSPost2010PropOp34
 70
     1
102
RTVSPost2010Prop35
280
     0
102
RTVSPost2010PropOp35
 70
     1
102
RTVSPost2010Prop36
280
     0
102
RTVSPost2010PropOp36
 70
     1
102
RTVSPost2010Prop37
 90
       50
102
RTVSPost2010PropOp37
 70
     1
102
RTVSPost2010Prop38
140
0.0
102
RTVSPost2010PropOp38
 70
     1
102
RTVSPost2010Prop39
140
1.0
102
RTVSPost2010PropOp39
 70
     1
102
RTVSPost2010Prop40
 90
        0
102
RTVSPost2010PropOp40
 70
     1
102
RTVSPost2010Prop41ColorIndex
 90
       18
102
RTVSPost2010Prop41ColorRGB
 90
        0
102
RTVSPost2010PropOp41
 70
     1
102
RTVSPost2010Prop42
 90
       50
102
RTVSPost2010PropOp42
 70
     1
102
RTVSPost2010Prop43
 90
        3
102
RTVSPost2010PropOp43
 70
     1
102
RTVSPost2010Prop44ColorIndex
 90
        5
102
RTVSPost2010Prop44ColorRGB
 90
      255
102
RTVSPost2010PropOp44
 70
     1
102
RTVSPost2010Prop45
280
     0
102
RTVSPost2010PropOp45
 70
     1
102
RTVSPost2010Prop46
 90
       50
102
RTVSPost2010PropOp46
 70
     1
102
RTVSPost2010Prop47
 90
       50
102
RTVSPost2010PropOp47
 70
     1
102
RTVSPost2010Prop48
 90
       50
102
RTVSPost2010PropOp48
 70
     1
102
RTVSPost2010Prop49
280
     0
102
RTVSPost2010PropOp49
 70
     1
102
RTVSPost2010Prop50
 90
       50
102
RTVSPost2010PropOp50
 70
     1
102
RTVSPost2010Prop51ColorIndex
 90
      256
102
RTVSPost2010Prop51ColorRGB
 90
-16777216
102
RTVSPost2010PropOp51
 70
     0
102
RTVSPost2010Prop52
140
1.0
102
RTVSPost2010PropOp52
 70
     0
102
RTVSPost2010Prop53
 90
        2
102
RTVSPost2010PropOp53
 70
     1
102
RTVSPost2010Prop54
  1
strokes_ogs.tif
102
RTVSPost2010PropOp54
 70
     1
102
RTVSPost2010Prop55
280
     0
102
RTVSPost2010PropOp55
 70
     1
102
RTVSPost2010Prop56
140
1.0
102
RTVSPost2010PropOp56
 70
     1
102
RTVSPost2010Prop57
140
1.0
102
RTVSPost2010PropOp57
 70
     1
102
RTVSPropertyOp0
 70
     0
102
RTVSPropertyOp1
 70
     0
102
RTVSPropertyOp2
 70
     0
102
RTVSPropertyOp3
 70
     0
102
RTVSPropertyOp4
 70
     0
102
RTVSPropertyOp5
 70
     0
102
RTVSPropertyOp6
 70
     0
102
RTVSPropertyOp7
 70
     0
102
RTVSPropertyOp8
 70
     0
102
RTVSPropertyOp9
 70
     0
102
RTVSPropertyOp10
 70
     0
102
RTVSPropertyOp11
 70
     0
102
RTVSPropertyOp12
 70
     0
102
RTVSPropertyOp13
 70
     0
102
RTVSPropertyOp14
 70
     2
102
RTVSPropertyOp15
 70
     0
102
RTVSPropertyOp16
 70
     0
102
RTVSPropertyOp17
 70
     0
102
RTVSPropertyOp18
 70
     0
102
RTVSPropertyOp19
 70
     0
102
RTVSPropertyOp20
 70
     0
102
RTVSPropertyOp21
 70
     0
102
RTVSPropertyOp22
 70
     0
102
RTVSPropertyOp23
 70
     0
102
RTVSPropertyOp24
 70
     0
102
RTVSPropertyOp25
 70
     0
102
RTVSPropertyOp26
 70
     0
102
RTVSPropertyOp27
 70
     0
102
RTVSPropertyOp28
 70
     1
102
RTVSPropertyOp29
 70
     1
102
RTVSPropertyOp30
 70
     1
102
RTVSPropertyOp31
 70
     1
102
RTVSPropertyOp32
 70
     1
102
RTVSPropertyOp33
 70
     1
102
RTVSPropertyOp34
 70
     1
102
RTVSPropertyOp35
 70
     1
102
RTVSPropertyOp36
 70
     1
102
RTVSPropertyOp37
 70
     1
102
RTVSPropertyOp38
 70
     1
102
RTVSPropertyOp39
 70
     1
102
RTVSPropertyOp40
 70
     1
102
RTVSPropertyOp41
 70
     1
102
RTVSPropertyOp42
 70
     1
102
RTVSPropertyOp43
 70
     1
102
RTVSPropertyOp44
 70
     1
102
RTVSPropertyOp45
 70
     1
102
RTVSPropertyOp46
 70
     1
102
RTVSPropertyOp47
 70
     1
102
RTVSPropertyOp48
 70
     1
102
RTVSPropertyOp49
 70
     1
102
RTVSPropertyOp50
 70
     1
102
RTVSPropertyOp51
 70
     0
102
RTVSPropertyOp52
 70
     0
102
RTVSPropertyOp53
 70
     1
102
RTVSPropertyOp54
 70
     1
102
RTVSPropertyOp55
 70
     1
102
RTVSPropertyOp56
 70
     1
102
RTVSPropertyOp57
 70
     1
102
RTVSPropertyOp58
 70
     1
102
RTVSPropertyOp59
 70
     1
102
RTVSPropertyOp60
 70
     1
102
RTVSPropertyOp61
 70
     1
102
RTVSPropertyOp62
 70
     1
  0
XRECORD
  5
69C
102
{ACAD_REACTORS
330
69B
102
}
330
69B
100
AcDbXrecord
280
     1
102
RTVSPost2010Prop28
280
     0
102
RTVSPost2010PropOp28
 70
     1
102
RTVSPost2010Prop29
280
     1
102
RTVSPost2010PropOp29
 70
     1
102
RTVSPost2010Prop30
280
     1
102
RTVSPost2010PropOp30
 70
     1
102
RTVSPost2010Prop31
280
     0
102
RTVSPost2010PropOp31
 70
     1
102
RTVSPost2010Prop32
280
     0
102
RTVSPost2010PropOp32
 70
     1
102
RTVSPost2010Prop33
280
     0
102
RTVSPost2010PropOp33
 70
     1
102
RTVSPost2010Prop34
280
     0
102
RTVSPost2010PropOp34
 70
     1
102
RTVSPost2010Prop35
280
     0
102
RTVSPost2010PropOp35
 70
     1
102
RTVSPost2010Prop36
280
     0
102
RTVSPost2010PropOp36
 70
     1
102
RTVSPost2010Prop37
 90
       50
102
RTVSPost2010PropOp37
 70
     1
102
RTVSPost2010Prop38
140
0.0
102
RTVSPost2010PropOp38
 70
     1
102
RTVSPost2010Prop39
140
1.0
102
RTVSPost2010PropOp39
 70
     1
102
RTVSPost2010Prop40
 90
        0
102
RTVSPost2010PropOp40
 70
     1
102
RTVSPost2010Prop41ColorIndex
 90
       18
102
RTVSPost2010Prop41ColorRGB
 90
        0
102
RTVSPost2010PropOp41
 70
     1
102
RTVSPost2010Prop42
 90
       50
102
RTVSPost2010PropOp42
 70
     1
102
RTVSPost2010Prop43
 90
        3
102
RTVSPost2010PropOp43
 70
     1
102
RTVSPost2010Prop44ColorIndex
 90
        5
102
RTVSPost2010Prop44ColorRGB
 90
      255
102
RTVSPost2010PropOp44
 70
     1
102
RTVSPost2010Prop45
280
     0
102
RTVSPost2010PropOp45
 70
     1
102
RTVSPost2010Prop46
 90
       50
102
RTVSPost2010PropOp46
 70
     1
102
RTVSPost2010Prop47
 90
       50
102
RTVSPost2010PropOp47
 70
     1
102
RTVSPost2010Prop48
 90
       50
102
RTVSPost2010PropOp48
 70
     1
102
RTVSPost2010Prop49
280
     0
102
RTVSPost2010PropOp49
 70
     1
102
RTVSPost2010Prop50
 90
       50
102
RTVSPost2010PropOp50
 70
     1
102
RTVSPost2010Prop51ColorIndex
 90
      256
102
RTVSPost2010Prop51ColorRGB
 90
-16777216
102
RTVSPost2010PropOp51
 70
     0
102
RTVSPost2010Prop52
140
1.0
102
RTVSPost2010PropOp52
 70
     0
102
RTVSPost2010Prop53
 90
        2
102
RTVSPost2010PropOp53
 70
     1
102
RTVSPost2010Prop54
  1
strokes_ogs.tif
102
RTVSPost2010PropOp54
 70
     1
102
RTVSPost2010Prop55
280
     0
102
RTVSPost2010PropOp55
 70
     1
102
RTVSPost2010Prop56
140
1.0
102
RTVSPost2010PropOp56
 70
     1
102
RTVSPost2010Prop57
140
1.0
102
RTVSPost2010PropOp57
 70
     1
102
RTVSPropertyOp0
 70
     1
102
RTVSPropertyOp1
 70
     1
102
RTVSPropertyOp2
 70
     1
102
RTVSPropertyOp3
 70
     1
102
RTVSPropertyOp4
 70
     1
102
RTVSPropertyOp5
 70
     1
102
RTVSPropertyOp6
 70
     1
102
RTVSPropertyOp7
 70
     1
102
RTVSPropertyOp8
 70
     1
102
RTVSPropertyOp9
 70
     1
102
RTVSPropertyOp10
 70
     1
102
RTVSPropertyOp11
 70
     1
102
RTVSPropertyOp12
 70
     1
102
RTVSPropertyOp13
 70
     1
102
RTVSPropertyOp14
 70
     1
102
RTVSPropertyOp15
 70
     1
102
RTVSPropertyOp16
 70
     1
102
RTVSPropertyOp17
 70
     1
102
RTVSPropertyOp18
 70
     1
102
RTVSPropertyOp19
 70
     1
102
RTVSPropertyOp20
 70
     1
102
RTVSPropertyOp21
 70
     1
102
RTVSPropertyOp22
 70
     1
102
RTVSPropertyOp23
 70
     1
102
RTVSPropertyOp24
 70
     1
102
RTVSPropertyOp25
 70
     1
102
RTVSPropertyOp26
 70
     1
102
RTVSPropertyOp27
 70
     1
102
RTVSPropertyOp28
 70
     1
102
RTVSPropertyOp29
 70
     1
102
RTVSPropertyOp30
 70
     1
102
RTVSPropertyOp31
 70
     1
102
RTVSPropertyOp32
 70
     1
102
RTVSPropertyOp33
 70
     1
102
RTVSPropertyOp34
 70
     1
102
RTVSPropertyOp35
 70
     1
102
RTVSPropertyOp36
 70
     1
102
RTVSPropertyOp37
 70
     1
102
RTVSPropertyOp38
 70
     1
102
RTVSPropertyOp39
 70
     1
102
RTVSPropertyOp40
 70
     1
102
RTVSPropertyOp41
 70
     1
102
RTVSPropertyOp42
 70
     1
102
RTVSPropertyOp43
 70
     1
102
RTVSPropertyOp44
 70
     1
102
RTVSPropertyOp45
 70
     1
102
RTVSPropertyOp46
 70
     1
102
RTVSPropertyOp47
 70
     1
102
RTVSPropertyOp48
 70
     1
102
RTVSPropertyOp49
 70
     1
102
RTVSPropertyOp50
 70
     1
102
RTVSPropertyOp51
 70
     0
102
RTVSPropertyOp52
 70
     0
102
RTVSPropertyOp53
 70
     1
102
RTVSPropertyOp54
 70
     1
102
RTVSPropertyOp55
 70
     1
102
RTVSPropertyOp56
 70
     1
102
RTVSPropertyOp57
 70
     1
102
RTVSPropertyOp58
 70
     1
102
RTVSPropertyOp59
 70
     1
102
RTVSPropertyOp60
 70
     1
102
RTVSPropertyOp61
 70
     1
102
RTVSPropertyOp62
 70
     1
  0
XRECORD
  5
6B8
102
{ACAD_REACTORS
330
6B7
102
}
330
6B7
100
AcDbXrecord
280
     1
102
RTVSPost2010Prop28
280
     0
102
RTVSPost2010PropOp28
 70
     1
102
RTVSPost2010Prop29
280
     1
102
RTVSPost2010PropOp29
 70
     1
102
RTVSPost2010Prop30
280
     1
102
RTVSPost2010PropOp30
 70
     1
102
RTVSPost2010Prop31
280
     0
102
RTVSPost2010PropOp31
 70
     1
102
RTVSPost2010Prop32
280
     0
102
RTVSPost2010PropOp32
 70
     1
102
RTVSPost2010Prop33
280
     0
102
RTVSPost2010PropOp33
 70
     1
102
RTVSPost2010Prop34
280
     0
102
RTVSPost2010PropOp34
 70
     1
102
RTVSPost2010Prop35
280
     0
102
RTVSPost2010PropOp35
 70
     1
102
RTVSPost2010Prop36
280
     0
102
RTVSPost2010PropOp36
 70
     1
102
RTVSPost2010Prop37
 90
       50
102
RTVSPost2010PropOp37
 70
     1
102
RTVSPost2010Prop38
140
0.0
102
RTVSPost2010PropOp38
 70
     1
102
RTVSPost2010Prop39
140
1.0
102
RTVSPost2010PropOp39
 70
     1
102
RTVSPost2010Prop40
 90
        0
102
RTVSPost2010PropOp40
 70
     1
102
RTVSPost2010Prop41ColorIndex
 90
       18
102
RTVSPost2010Prop41ColorRGB
 90
        0
102
RTVSPost2010PropOp41
 70
     1
102
RTVSPost2010Prop42
 90
       50
102
RTVSPost2010PropOp42
 70
     1
102
RTVSPost2010Prop43
 90
        3
102
RTVSPost2010PropOp43
 70
     1
102
RTVSPost2010Prop44ColorIndex
 90
        5
102
RTVSPost2010Prop44ColorRGB
 90
      255
102
RTVSPost2010PropOp44
 70
     1
102
RTVSPost2010Prop45
280
     0
102
RTVSPost2010PropOp45
 70
     1
102
RTVSPost2010Prop46
 90
       50
102
RTVSPost2010PropOp46
 70
     1
102
RTVSPost2010Prop47
 90
       50
102
RTVSPost2010PropOp47
 70
     1
102
RTVSPost2010Prop48
 90
       50
102
RTVSPost2010PropOp48
 70
     1
102
RTVSPost2010Prop49
280
     0
102
RTVSPost2010PropOp49
 70
     1
102
RTVSPost2010Prop50
 90
       50
102
RTVSPost2010PropOp50
 70
     1
102
RTVSPost2010Prop51ColorIndex
 90
      256
102
RTVSPost2010Prop51ColorRGB
 90
-16777216
102
RTVSPost2010PropOp51
 70
     0
102
RTVSPost2010Prop52
140
1.0
102
RTVSPost2010PropOp52
 70
     0
102
RTVSPost2010Prop53
 90
        2
102
RTVSPost2010PropOp53
 70
     1
102
RTVSPost2010Prop54
  1
strokes_ogs.tif
102
RTVSPost2010PropOp54
 70
     1
102
RTVSPost2010Prop55
280
     0
102
RTVSPost2010PropOp55
 70
     1
102
RTVSPost2010Prop56
140
1.0
102
RTVSPost2010PropOp56
 70
     1
102
RTVSPost2010Prop57
140
1.0
102
RTVSPost2010PropOp57
 70
     1
102
RTVSPropertyOp0
 70
     1
102
RTVSPropertyOp1
 70
     1
102
RTVSPropertyOp2
 70
     1
102
RTVSPropertyOp3
 70
     1
102
RTVSPropertyOp4
 70
     1
102
RTVSPropertyOp5
 70
     1
102
RTVSPropertyOp6
 70
     1
102
RTVSPropertyOp7
 70
     1
102
RTVSPropertyOp8
 70
     1
102
RTVSPropertyOp9
 70
     1
102
RTVSPropertyOp10
 70
     1
102
RTVSPropertyOp11
 70
     1
102
RTVSPropertyOp12
 70
     1
102
RTVSPropertyOp13
 70
     1
102
RTVSPropertyOp14
 70
     1
102
RTVSPropertyOp15
 70
     1
102
RTVSPropertyOp16
 70
     1
102
RTVSPropertyOp17
 70
     1
102
RTVSPropertyOp18
 70
     1
102
RTVSPropertyOp19
 70
     1
102
RTVSPropertyOp20
 70
     1
102
RTVSPropertyOp21
 70
     1
102
RTVSPropertyOp22
 70
     1
102
RTVSPropertyOp23
 70
     1
102
RTVSPropertyOp24
 70
     1
102
RTVSPropertyOp25
 70
     1
102
RTVSPropertyOp26
 70
     1
102
RTVSPropertyOp27
 70
     1
102
RTVSPropertyOp28
 70
     1
102
RTVSPropertyOp29
 70
     1
102
RTVSPropertyOp30
 70
     1
102
RTVSPropertyOp31
 70
     1
102
RTVSPropertyOp32
 70
     1
102
RTVSPropertyOp33
 70
     1
102
RTVSPropertyOp34
 70
     1
102
RTVSPropertyOp35
 70
     1
102
RTVSPropertyOp36
 70
     1
102
RTVSPropertyOp37
 70
     1
102
RTVSPropertyOp38
 70
     1
102
RTVSPropertyOp39
 70
     1
102
RTVSPropertyOp40
 70
     1
102
RTVSPropertyOp41
 70
     1
102
RTVSPropertyOp42
 70
     1
102
RTVSPropertyOp43
 70
     1
102
RTVSPropertyOp44
 70
     1
102
RTVSPropertyOp45
 70
     1
102
RTVSPropertyOp46
 70
     1
102
RTVSPropertyOp47
 70
     1
102
RTVSPropertyOp48
 70
     1
102
RTVSPropertyOp49
 70
     1
102
RTVSPropertyOp50
 70
     1
102
RTVSPropertyOp51
 70
     0
102
RTVSPropertyOp52
 70
     0
102
RTVSPropertyOp53
 70
     1
102
RTVSPropertyOp54
 70
     1
102
RTVSPropertyOp55
 70
     1
102
RTVSPropertyOp56
 70
     1
102
RTVSPropertyOp57
 70
     1
102
RTVSPropertyOp58
 70
     1
102
RTVSPropertyOp59
 70
     1
102
RTVSPropertyOp60
 70
     1
102
RTVSPropertyOp61
 70
     1
102
RTVSPropertyOp62
 70
     1
  0
XRECORD
  5
6B6
102
{ACAD_REACTORS
330
6B5
102
}
330
6B5
100
AcDbXrecord
280
     1
102
RTVSPost2010Prop28
280
     0
102
RTVSPost2010PropOp28
 70
     1
102
RTVSPost2010Prop29
280
     1
102
RTVSPost2010PropOp29
 70
     1
102
RTVSPost2010Prop30
280
     1
102
RTVSPost2010PropOp30
 70
     1
102
RTVSPost2010Prop31
280
     0
102
RTVSPost2010PropOp31
 70
     1
102
RTVSPost2010Prop32
280
     0
102
RTVSPost2010PropOp32
 70
     1
102
RTVSPost2010Prop33
280
     0
102
RTVSPost2010PropOp33
 70
     1
102
RTVSPost2010Prop34
280
     0
102
RTVSPost2010PropOp34
 70
     1
102
RTVSPost2010Prop35
280
     0
102
RTVSPost2010PropOp35
 70
     1
102
RTVSPost2010Prop36
280
     0
102
RTVSPost2010PropOp36
 70
     1
102
RTVSPost2010Prop37
 90
       50
102
RTVSPost2010PropOp37
 70
     1
102
RTVSPost2010Prop38
140
0.0
102
RTVSPost2010PropOp38
 70
     1
102
RTVSPost2010Prop39
140
1.0
102
RTVSPost2010PropOp39
 70
     1
102
RTVSPost2010Prop40
 90
        0
102
RTVSPost2010PropOp40
 70
     1
102
RTVSPost2010Prop41ColorIndex
 90
       18
102
RTVSPost2010Prop41ColorRGB
 90
        0
102
RTVSPost2010PropOp41
 70
     1
102
RTVSPost2010Prop42
 90
       50
102
RTVSPost2010PropOp42
 70
     1
102
RTVSPost2010Prop43
 90
        3
102
RTVSPost2010PropOp43
 70
     1
102
RTVSPost2010Prop44ColorIndex
 90
        5
102
RTVSPost2010Prop44ColorRGB
 90
      255
102
RTVSPost2010PropOp44
 70
     1
102
RTVSPost2010Prop45
280
     0
102
RTVSPost2010PropOp45
 70
     1
102
RTVSPost2010Prop46
 90
       50
102
RTVSPost2010PropOp46
 70
     1
102
RTVSPost2010Prop47
 90
       50
102
RTVSPost2010PropOp47
 70
     1
102
RTVSPost2010Prop48
 90
       50
102
RTVSPost2010PropOp48
 70
     1
102
RTVSPost2010Prop49
280
     0
102
RTVSPost2010PropOp49
 70
     1
102
RTVSPost2010Prop50
 90
       50
102
RTVSPost2010PropOp50
 70
     1
102
RTVSPost2010Prop51ColorIndex
 90
      256
102
RTVSPost2010Prop51ColorRGB
 90
-16777216
102
RTVSPost2010PropOp51
 70
     0
102
RTVSPost2010Prop52
140
1.0
102
RTVSPost2010PropOp52
 70
     0
102
RTVSPost2010Prop53
 90
        2
102
RTVSPost2010PropOp53
 70
     1
102
RTVSPost2010Prop54
  1
strokes_ogs.tif
102
RTVSPost2010PropOp54
 70
     1
102
RTVSPost2010Prop55
280
     0
102
RTVSPost2010PropOp55
 70
     1
102
RTVSPost2010Prop56
140
1.0
102
RTVSPost2010PropOp56
 70
     1
102
RTVSPost2010Prop57
140
1.0
102
RTVSPost2010PropOp57
 70
     1
102
RTVSPropertyOp0
 70
     1
102
RTVSPropertyOp1
 70
     1
102
RTVSPropertyOp2
 70
     1
102
RTVSPropertyOp3
 70
     1
102
RTVSPropertyOp4
 70
     1
102
RTVSPropertyOp5
 70
     1
102
RTVSPropertyOp6
 70
     1
102
RTVSPropertyOp7
 70
     1
102
RTVSPropertyOp8
 70
     1
102
RTVSPropertyOp9
 70
     1
102
RTVSPropertyOp10
 70
     1
102
RTVSPropertyOp11
 70
     1
102
RTVSPropertyOp12
 70
     1
102
RTVSPropertyOp13
 70
     1
102
RTVSPropertyOp14
 70
     1
102
RTVSPropertyOp15
 70
     1
102
RTVSPropertyOp16
 70
     1
102
RTVSPropertyOp17
 70
     1
102
RTVSPropertyOp18
 70
     1
102
RTVSPropertyOp19
 70
     1
102
RTVSPropertyOp20
 70
     1
102
RTVSPropertyOp21
 70
     1
102
RTVSPropertyOp22
 70
     1
102
RTVSPropertyOp23
 70
     1
102
RTVSPropertyOp24
 70
     1
102
RTVSPropertyOp25
 70
     1
102
RTVSPropertyOp26
 70
     1
102
RTVSPropertyOp27
 70
     1
102
RTVSPropertyOp28
 70
     1
102
RTVSPropertyOp29
 70
     1
102
RTVSPropertyOp30
 70
     1
102
RTVSPropertyOp31
 70
     1
102
RTVSPropertyOp32
 70
     1
102
RTVSPropertyOp33
 70
     1
102
RTVSPropertyOp34
 70
     1
102
RTVSPropertyOp35
 70
     1
102
RTVSPropertyOp36
 70
     1
102
RTVSPropertyOp37
 70
     1
102
RTVSPropertyOp38
 70
     1
102
RTVSPropertyOp39
 70
     1
102
RTVSPropertyOp40
 70
     1
102
RTVSPropertyOp41
 70
     1
102
RTVSPropertyOp42
 70
     1
102
RTVSPropertyOp43
 70
     1
102
RTVSPropertyOp44
 70
     1
102
RTVSPropertyOp45
 70
     1
102
RTVSPropertyOp46
 70
     1
102
RTVSPropertyOp47
 70
     1
102
RTVSPropertyOp48
 70
     1
102
RTVSPropertyOp49
 70
     1
102
RTVSPropertyOp50
 70
     1
102
RTVSPropertyOp51
 70
     0
102
RTVSPropertyOp52
 70
     0
102
RTVSPropertyOp53
 70
     1
102
RTVSPropertyOp54
 70
     1
102
RTVSPropertyOp55
 70
     1
102
RTVSPropertyOp56
 70
     1
102
RTVSPropertyOp57
 70
     1
102
RTVSPropertyOp58
 70
     1
102
RTVSPropertyOp59
 70
     1
102
RTVSPropertyOp60
 70
     1
102
RTVSPropertyOp61
 70
     1
102
RTVSPropertyOp62
 70
     1
  0
XRECORD
  5
6B0
102
{ACAD_REACTORS
330
6AF
102
}
330
6AF
100
AcDbXrecord
280
     1
102
RTVSPost2010Prop28
280
     0
102
RTVSPost2010PropOp28
 70
     1
102
RTVSPost2010Prop29
280
     1
102
RTVSPost2010PropOp29
 70
     1
102
RTVSPost2010Prop30
280
     1
102
RTVSPost2010PropOp30
 70
     1
102
RTVSPost2010Prop31
280
     0
102
RTVSPost2010PropOp31
 70
     1
102
RTVSPost2010Prop32
280
     0
102
RTVSPost2010PropOp32
 70
     1
102
RTVSPost2010Prop33
280
     0
102
RTVSPost2010PropOp33
 70
     1
102
RTVSPost2010Prop34
280
     0
102
RTVSPost2010PropOp34
 70
     1
102
RTVSPost2010Prop35
280
     0
102
RTVSPost2010PropOp35
 70
     1
102
RTVSPost2010Prop36
280
     0
102
RTVSPost2010PropOp36
 70
     1
102
RTVSPost2010Prop37
 90
       50
102
RTVSPost2010PropOp37
 70
     1
102
RTVSPost2010Prop38
140
0.0
102
RTVSPost2010PropOp38
 70
     1
102
RTVSPost2010Prop39
140
1.0
102
RTVSPost2010PropOp39
 70
     1
102
RTVSPost2010Prop40
 90
        0
102
RTVSPost2010PropOp40
 70
     1
102
RTVSPost2010Prop41ColorIndex
 90
       18
102
RTVSPost2010Prop41ColorRGB
 90
        0
102
RTVSPost2010PropOp41
 70
     1
102
RTVSPost2010Prop42
 90
       50
102
RTVSPost2010PropOp42
 70
     1
102
RTVSPost2010Prop43
 90
        3
102
RTVSPost2010PropOp43
 70
     1
102
RTVSPost2010Prop44ColorIndex
 90
        5
102
RTVSPost2010Prop44ColorRGB
 90
      255
102
RTVSPost2010PropOp44
 70
     1
102
RTVSPost2010Prop45
280
     0
102
RTVSPost2010PropOp45
 70
     1
102
RTVSPost2010Prop46
 90
       50
102
RTVSPost2010PropOp46
 70
     1
102
RTVSPost2010Prop47
 90
       50
102
RTVSPost2010PropOp47
 70
     1
102
RTVSPost2010Prop48
 90
       50
102
RTVSPost2010PropOp48
 70
     1
102
RTVSPost2010Prop49
280
     0
102
RTVSPost2010PropOp49
 70
     1
102
RTVSPost2010Prop50
 90
       50
102
RTVSPost2010PropOp50
 70
     1
102
RTVSPost2010Prop51ColorIndex
 90
      256
102
RTVSPost2010Prop51ColorRGB
 90
-16777216
102
RTVSPost2010PropOp51
 70
     0
102
RTVSPost2010Prop52
140
1.0
102
RTVSPost2010PropOp52
 70
     0
102
RTVSPost2010Prop53
 90
        2
102
RTVSPost2010PropOp53
 70
     1
102
RTVSPost2010Prop54
  1
strokes_ogs.tif
102
RTVSPost2010PropOp54
 70
     1
102
RTVSPost2010Prop55
280
     0
102
RTVSPost2010PropOp55
 70
     1
102
RTVSPost2010Prop56
140
1.0
102
RTVSPost2010PropOp56
 70
     1
102
RTVSPost2010Prop57
140
1.0
102
RTVSPost2010PropOp57
 70
     1
102
RTVSPropertyOp0
 70
     1
102
RTVSPropertyOp1
 70
     1
102
RTVSPropertyOp2
 70
     1
102
RTVSPropertyOp3
 70
     1
102
RTVSPropertyOp4
 70
     1
102
RTVSPropertyOp5
 70
     1
102
RTVSPropertyOp6
 70
     1
102
RTVSPropertyOp7
 70
     1
102
RTVSPropertyOp8
 70
     1
102
RTVSPropertyOp9
 70
     1
102
RTVSPropertyOp10
 70
     1
102
RTVSPropertyOp11
 70
     1
102
RTVSPropertyOp12
 70
     1
102
RTVSPropertyOp13
 70
     1
102
RTVSPropertyOp14
 70
     1
102
RTVSPropertyOp15
 70
     1
102
RTVSPropertyOp16
 70
     1
102
RTVSPropertyOp17
 70
     1
102
RTVSPropertyOp18
 70
     1
102
RTVSPropertyOp19
 70
     1
102
RTVSPropertyOp20
 70
     1
102
RTVSPropertyOp21
 70
     1
102
RTVSPropertyOp22
 70
     1
102
RTVSPropertyOp23
 70
     1
102
RTVSPropertyOp24
 70
     1
102
RTVSPropertyOp25
 70
     1
102
RTVSPropertyOp26
 70
     1
102
RTVSPropertyOp27
 70
     1
102
RTVSPropertyOp28
 70
     1
102
RTVSPropertyOp29
 70
     1
102
RTVSPropertyOp30
 70
     1
102
RTVSPropertyOp31
 70
     1
102
RTVSPropertyOp32
 70
     1
102
RTVSPropertyOp33
 70
     1
102
RTVSPropertyOp34
 70
     1
102
RTVSPropertyOp35
 70
     1
102
RTVSPropertyOp36
 70
     1
102
RTVSPropertyOp37
 70
     1
102
RTVSPropertyOp38
 70
     1
102
RTVSPropertyOp39
 70
     1
102
RTVSPropertyOp40
 70
     1
102
RTVSPropertyOp41
 70
     1
102
RTVSPropertyOp42
 70
     1
102
RTVSPropertyOp43
 70
     1
102
RTVSPropertyOp44
 70
     1
102
RTVSPropertyOp45
 70
     1
102
RTVSPropertyOp46
 70
     1
102
RTVSPropertyOp47
 70
     1
102
RTVSPropertyOp48
 70
     1
102
RTVSPropertyOp49
 70
     1
102
RTVSPropertyOp50
 70
     1
102
RTVSPropertyOp51
 70
     0
102
RTVSPropertyOp52
 70
     0
102
RTVSPropertyOp53
 70
     1
102
RTVSPropertyOp54
 70
     1
102
RTVSPropertyOp55
 70
     1
102
RTVSPropertyOp56
 70
     1
102
RTVSPropertyOp57
 70
     1
102
RTVSPropertyOp58
 70
     1
102
RTVSPropertyOp59
 70
     1
102
RTVSPropertyOp60
 70
     1
102
RTVSPropertyOp61
 70
     1
102
RTVSPropertyOp62
 70
     1
  0
XRECORD
  5
6B2
102
{ACAD_REACTORS
330
6B1
102
}
330
6B1
100
AcDbXrecord
280
     1
102
RTVSPost2010Prop28
280
     0
102
RTVSPost2010PropOp28
 70
     1
102
RTVSPost2010Prop29
280
     1
102
RTVSPost2010PropOp29
 70
     1
102
RTVSPost2010Prop30
280
     1
102
RTVSPost2010PropOp30
 70
     1
102
RTVSPost2010Prop31
280
     0
102
RTVSPost2010PropOp31
 70
     1
102
RTVSPost2010Prop32
280
     0
102
RTVSPost2010PropOp32
 70
     1
102
RTVSPost2010Prop33
280
     0
102
RTVSPost2010PropOp33
 70
     1
102
RTVSPost2010Prop34
280
     0
102
RTVSPost2010PropOp34
 70
     1
102
RTVSPost2010Prop35
280
     0
102
RTVSPost2010PropOp35
 70
     1
102
RTVSPost2010Prop36
280
     0
102
RTVSPost2010PropOp36
 70
     1
102
RTVSPost2010Prop37
 90
       50
102
RTVSPost2010PropOp37
 70
     1
102
RTVSPost2010Prop38
140
0.0
102
RTVSPost2010PropOp38
 70
     1
102
RTVSPost2010Prop39
140
1.0
102
RTVSPost2010PropOp39
 70
     1
102
RTVSPost2010Prop40
 90
        0
102
RTVSPost2010PropOp40
 70
     1
102
RTVSPost2010Prop41ColorIndex
 90
       18
102
RTVSPost2010Prop41ColorRGB
 90
        0
102
RTVSPost2010PropOp41
 70
     1
102
RTVSPost2010Prop42
 90
       50
102
RTVSPost2010PropOp42
 70
     1
102
RTVSPost2010Prop43
 90
        3
102
RTVSPost2010PropOp43
 70
     1
102
RTVSPost2010Prop44ColorIndex
 90
        5
102
RTVSPost2010Prop44ColorRGB
 90
      255
102
RTVSPost2010PropOp44
 70
     1
102
RTVSPost2010Prop45
280
     0
102
RTVSPost2010PropOp45
 70
     1
102
RTVSPost2010Prop46
 90
       50
102
RTVSPost2010PropOp46
 70
     1
102
RTVSPost2010Prop47
 90
       50
102
RTVSPost2010PropOp47
 70
     1
102
RTVSPost2010Prop48
 90
       50
102
RTVSPost2010PropOp48
 70
     1
102
RTVSPost2010Prop49
280
     0
102
RTVSPost2010PropOp49
 70
     1
102
RTVSPost2010Prop50
 90
       50
102
RTVSPost2010PropOp50
 70
     1
102
RTVSPost2010Prop51ColorIndex
 90
      256
102
RTVSPost2010Prop51ColorRGB
 90
-16777216
102
RTVSPost2010PropOp51
 70
     0
102
RTVSPost2010Prop52
140
1.0
102
RTVSPost2010PropOp52
 70
     0
102
RTVSPost2010Prop53
 90
        2
102
RTVSPost2010PropOp53
 70
     1
102
RTVSPost2010Prop54
  1
strokes_ogs.tif
102
RTVSPost2010PropOp54
 70
     1
102
RTVSPost2010Prop55
280
     0
102
RTVSPost2010PropOp55
 70
     1
102
RTVSPost2010Prop56
140
1.0
102
RTVSPost2010PropOp56
 70
     1
102
RTVSPost2010Prop57
140
1.0
102
RTVSPost2010PropOp57
 70
     1
102
RTVSPropertyOp0
 70
     1
102
RTVSPropertyOp1
 70
     1
102
RTVSPropertyOp2
 70
     1
102
RTVSPropertyOp3
 70
     1
102
RTVSPropertyOp4
 70
     1
102
RTVSPropertyOp5
 70
     1
102
RTVSPropertyOp6
 70
     1
102
RTVSPropertyOp7
 70
     1
102
RTVSPropertyOp8
 70
     1
102
RTVSPropertyOp9
 70
     1
102
RTVSPropertyOp10
 70
     1
102
RTVSPropertyOp11
 70
     1
102
RTVSPropertyOp12
 70
     1
102
RTVSPropertyOp13
 70
     1
102
RTVSPropertyOp14
 70
     1
102
RTVSPropertyOp15
 70
     1
102
RTVSPropertyOp16
 70
     1
102
RTVSPropertyOp17
 70
     1
102
RTVSPropertyOp18
 70
     1
102
RTVSPropertyOp19
 70
     1
102
RTVSPropertyOp20
 70
     1
102
RTVSPropertyOp21
 70
     1
102
RTVSPropertyOp22
 70
     1
102
RTVSPropertyOp23
 70
     1
102
RTVSPropertyOp24
 70
     1
102
RTVSPropertyOp25
 70
     1
102
RTVSPropertyOp26
 70
     1
102
RTVSPropertyOp27
 70
     1
102
RTVSPropertyOp28
 70
     1
102
RTVSPropertyOp29
 70
     1
102
RTVSPropertyOp30
 70
     1
102
RTVSPropertyOp31
 70
     1
102
RTVSPropertyOp32
 70
     1
102
RTVSPropertyOp33
 70
     1
102
RTVSPropertyOp34
 70
     1
102
RTVSPropertyOp35
 70
     1
102
RTVSPropertyOp36
 70
     1
102
RTVSPropertyOp37
 70
     1
102
RTVSPropertyOp38
 70
     1
102
RTVSPropertyOp39
 70
     1
102
RTVSPropertyOp40
 70
     1
102
RTVSPropertyOp41
 70
     1
102
RTVSPropertyOp42
 70
     1
102
RTVSPropertyOp43
 70
     1
102
RTVSPropertyOp44
 70
     1
102
RTVSPropertyOp45
 70
     1
102
RTVSPropertyOp46
 70
     1
102
RTVSPropertyOp47
 70
     1
102
RTVSPropertyOp48
 70
     1
102
RTVSPropertyOp49
 70
     1
102
RTVSPropertyOp50
 70
     1
102
RTVSPropertyOp51
 70
     0
102
RTVSPropertyOp52
 70
     0
102
RTVSPropertyOp53
 70
     1
102
RTVSPropertyOp54
 70
     1
102
RTVSPropertyOp55
 70
     1
102
RTVSPropertyOp56
 70
     1
102
RTVSPropertyOp57
 70
     1
102
RTVSPropertyOp58
 70
     1
102
RTVSPropertyOp59
 70
     1
102
RTVSPropertyOp60
 70
     1
102
RTVSPropertyOp61
 70
     1
102
RTVSPropertyOp62
 70
     1
  0
XRECORD
  5
6A2
102
{ACAD_REACTORS
330
6A1
102
}
330
6A1
100
AcDbXrecord
280
     1
102
RTVSPost2010Prop28
280
     0
102
RTVSPost2010PropOp28
 70
     1
102
RTVSPost2010Prop29
280
     1
102
RTVSPost2010PropOp29
 70
     1
102
RTVSPost2010Prop30
280
     1
102
RTVSPost2010PropOp30
 70
     1
102
RTVSPost2010Prop31
280
     0
102
RTVSPost2010PropOp31
 70
     1
102
RTVSPost2010Prop32
280
     0
102
RTVSPost2010PropOp32
 70
     1
102
RTVSPost2010Prop33
280
     0
102
RTVSPost2010PropOp33
 70
     1
102
RTVSPost2010Prop34
280
     0
102
RTVSPost2010PropOp34
 70
     1
102
RTVSPost2010Prop35
280
     0
102
RTVSPost2010PropOp35
 70
     1
102
RTVSPost2010Prop36
280
     0
102
RTVSPost2010PropOp36
 70
     1
102
RTVSPost2010Prop37
 90
       50
102
RTVSPost2010PropOp37
 70
     1
102
RTVSPost2010Prop38
140
0.0
102
RTVSPost2010PropOp38
 70
     1
102
RTVSPost2010Prop39
140
1.0
102
RTVSPost2010PropOp39
 70
     1
102
RTVSPost2010Prop40
 90
        0
102
RTVSPost2010PropOp40
 70
     1
102
RTVSPost2010Prop41ColorIndex
 90
       18
102
RTVSPost2010Prop41ColorRGB
 90
        0
102
RTVSPost2010PropOp41
 70
     1
102
RTVSPost2010Prop42
 90
       50
102
RTVSPost2010PropOp42
 70
     1
102
RTVSPost2010Prop43
 90
        3
102
RTVSPost2010PropOp43
 70
     1
102
RTVSPost2010Prop44ColorIndex
 90
        5
102
RTVSPost2010Prop44ColorRGB
 90
      255
102
RTVSPost2010PropOp44
 70
     1
102
RTVSPost2010Prop45
280
     0
102
RTVSPost2010PropOp45
 70
     1
102
RTVSPost2010Prop46
 90
       50
102
RTVSPost2010PropOp46
 70
     1
102
RTVSPost2010Prop47
 90
       50
102
RTVSPost2010PropOp47
 70
     1
102
RTVSPost2010Prop48
 90
       50
102
RTVSPost2010PropOp48
 70
     1
102
RTVSPost2010Prop49
280
     0
102
RTVSPost2010PropOp49
 70
     1
102
RTVSPost2010Prop50
 90
       50
102
RTVSPost2010PropOp50
 70
     1
102
RTVSPost2010Prop51ColorIndex
 90
      256
102
RTVSPost2010Prop51ColorRGB
 90
-16777216
102
RTVSPost2010PropOp51
 70
     0
102
RTVSPost2010Prop52
140
1.0
102
RTVSPost2010PropOp52
 70
     0
102
RTVSPost2010Prop53
 90
        2
102
RTVSPost2010PropOp53
 70
     1
102
RTVSPost2010Prop54
  1
strokes_ogs.tif
102
RTVSPost2010PropOp54
 70
     1
102
RTVSPost2010Prop55
280
     0
102
RTVSPost2010PropOp55
 70
     1
102
RTVSPost2010Prop56
140
1.0
102
RTVSPost2010PropOp56
 70
     1
102
RTVSPost2010Prop57
140
1.0
102
RTVSPost2010PropOp57
 70
     1
102
RTVSPropertyOp0
 70
     1
102
RTVSPropertyOp1
 70
     1
102
RTVSPropertyOp2
 70
     1
102
RTVSPropertyOp3
 70
     1
102
RTVSPropertyOp4
 70
     1
102
RTVSPropertyOp5
 70
     1
102
RTVSPropertyOp6
 70
     1
102
RTVSPropertyOp7
 70
     1
102
RTVSPropertyOp8
 70
     1
102
RTVSPropertyOp9
 70
     1
102
RTVSPropertyOp10
 70
     1
102
RTVSPropertyOp11
 70
     1
102
RTVSPropertyOp12
 70
     1
102
RTVSPropertyOp13
 70
     1
102
RTVSPropertyOp14
 70
     1
102
RTVSPropertyOp15
 70
     1
102
RTVSPropertyOp16
 70
     1
102
RTVSPropertyOp17
 70
     1
102
RTVSPropertyOp18
 70
     1
102
RTVSPropertyOp19
 70
     1
102
RTVSPropertyOp20
 70
     1
102
RTVSPropertyOp21
 70
     1
102
RTVSPropertyOp22
 70
     1
102
RTVSPropertyOp23
 70
     1
102
RTVSPropertyOp24
 70
     1
102
RTVSPropertyOp25
 70
     1
102
RTVSPropertyOp26
 70
     1
102
RTVSPropertyOp27
 70
     1
102
RTVSPropertyOp28
 70
     1
102
RTVSPropertyOp29
 70
     1
102
RTVSPropertyOp30
 70
     1
102
RTVSPropertyOp31
 70
     1
102
RTVSPropertyOp32
 70
     1
102
RTVSPropertyOp33
 70
     1
102
RTVSPropertyOp34
 70
     1
102
RTVSPropertyOp35
 70
     1
102
RTVSPropertyOp36
 70
     1
102
RTVSPropertyOp37
 70
     1
102
RTVSPropertyOp38
 70
     1
102
RTVSPropertyOp39
 70
     1
102
RTVSPropertyOp40
 70
     1
102
RTVSPropertyOp41
 70
     1
102
RTVSPropertyOp42
 70
     1
102
RTVSPropertyOp43
 70
     1
102
RTVSPropertyOp44
 70
     1
102
RTVSPropertyOp45
 70
     1
102
RTVSPropertyOp46
 70
     1
102
RTVSPropertyOp47
 70
     1
102
RTVSPropertyOp48
 70
     1
102
RTVSPropertyOp49
 70
     1
102
RTVSPropertyOp50
 70
     1
102
RTVSPropertyOp51
 70
     0
102
RTVSPropertyOp52
 70
     0
102
RTVSPropertyOp53
 70
     1
102
RTVSPropertyOp54
 70
     1
102
RTVSPropertyOp55
 70
     1
102
RTVSPropertyOp56
 70
     1
102
RTVSPropertyOp57
 70
     1
102
RTVSPropertyOp58
 70
     1
102
RTVSPropertyOp59
 70
     1
102
RTVSPropertyOp60
 70
     1
102
RTVSPropertyOp61
 70
     1
102
RTVSPropertyOp62
 70
     1
  0
XRECORD
  5
696
102
{ACAD_REACTORS
330
695
102
}
330
695
100
AcDbXrecord
280
     1
102
RTVSPost2010Prop28
280
     0
102
RTVSPost2010PropOp28
 70
     1
102
RTVSPost2010Prop29
280
     1
102
RTVSPost2010PropOp29
 70
     1
102
RTVSPost2010Prop30
280
     1
102
RTVSPost2010PropOp30
 70
     1
102
RTVSPost2010Prop31
280
     0
102
RTVSPost2010PropOp31
 70
     1
102
RTVSPost2010Prop32
280
     0
102
RTVSPost2010PropOp32
 70
     1
102
RTVSPost2010Prop33
280
     0
102
RTVSPost2010PropOp33
 70
     1
102
RTVSPost2010Prop34
280
     0
102
RTVSPost2010PropOp34
 70
     1
102
RTVSPost2010Prop35
280
     0
102
RTVSPost2010PropOp35
 70
     1
102
RTVSPost2010Prop36
280
     0
102
RTVSPost2010PropOp36
 70
     1
102
RTVSPost2010Prop37
 90
       50
102
RTVSPost2010PropOp37
 70
     1
102
RTVSPost2010Prop38
140
0.0
102
RTVSPost2010PropOp38
 70
     1
102
RTVSPost2010Prop39
140
1.0
102
RTVSPost2010PropOp39
 70
     1
102
RTVSPost2010Prop40
 90
        0
102
RTVSPost2010PropOp40
 70
     1
102
RTVSPost2010Prop41ColorIndex
 90
       18
102
RTVSPost2010Prop41ColorRGB
 90
        0
102
RTVSPost2010PropOp41
 70
     1
102
RTVSPost2010Prop42
 90
       50
102
RTVSPost2010PropOp42
 70
     1
102
RTVSPost2010Prop43
 90
        3
102
RTVSPost2010PropOp43
 70
     1
102
RTVSPost2010Prop44ColorIndex
 90
        5
102
RTVSPost2010Prop44ColorRGB
 90
      255
102
RTVSPost2010PropOp44
 70
     1
102
RTVSPost2010Prop45
280
     0
102
RTVSPost2010PropOp45
 70
     1
102
RTVSPost2010Prop46
 90
       50
102
RTVSPost2010PropOp46
 70
     1
102
RTVSPost2010Prop47
 90
       50
102
RTVSPost2010PropOp47
 70
     1
102
RTVSPost2010Prop48
 90
       50
102
RTVSPost2010PropOp48
 70
     1
102
RTVSPost2010Prop49
280
     0
102
RTVSPost2010PropOp49
 70
     1
102
RTVSPost2010Prop50
 90
       50
102
RTVSPost2010PropOp50
 70
     1
102
RTVSPost2010Prop51ColorIndex
 90
      256
102
RTVSPost2010Prop51ColorRGB
 90
-16777216
102
RTVSPost2010PropOp51
 70
     0
102
RTVSPost2010Prop52
140
1.0
102
RTVSPost2010PropOp52
 70
     0
102
RTVSPost2010Prop53
 90
        2
102
RTVSPost2010PropOp53
 70
     1
102
RTVSPost2010Prop54
  1
strokes_ogs.tif
102
RTVSPost2010PropOp54
 70
     1
102
RTVSPost2010Prop55
280
     0
102
RTVSPost2010PropOp55
 70
     1
102
RTVSPost2010Prop56
140
1.0
102
RTVSPost2010PropOp56
 70
     1
102
RTVSPost2010Prop57
140
1.0
102
RTVSPost2010PropOp57
 70
     1
102
RTVSPropertyOp0
 70
     1
102
RTVSPropertyOp1
 70
     1
102
RTVSPropertyOp2
 70
     1
102
RTVSPropertyOp3
 70
     1
102
RTVSPropertyOp4
 70
     1
102
RTVSPropertyOp5
 70
     1
102
RTVSPropertyOp6
 70
     1
102
RTVSPropertyOp7
 70
     1
102
RTVSPropertyOp8
 70
     1
102
RTVSPropertyOp9
 70
     1
102
RTVSPropertyOp10
 70
     1
102
RTVSPropertyOp11
 70
     1
102
RTVSPropertyOp12
 70
     1
102
RTVSPropertyOp13
 70
     1
102
RTVSPropertyOp14
 70
     1
102
RTVSPropertyOp15
 70
     1
102
RTVSPropertyOp16
 70
     1
102
RTVSPropertyOp17
 70
     1
102
RTVSPropertyOp18
 70
     1
102
RTVSPropertyOp19
 70
     1
102
RTVSPropertyOp20
 70
     1
102
RTVSPropertyOp21
 70
     1
102
RTVSPropertyOp22
 70
     1
102
RTVSPropertyOp23
 70
     1
102
RTVSPropertyOp24
 70
     1
102
RTVSPropertyOp25
 70
     1
102
RTVSPropertyOp26
 70
     1
102
RTVSPropertyOp27
 70
     1
102
RTVSPropertyOp28
 70
     1
102
RTVSPropertyOp29
 70
     1
102
RTVSPropertyOp30
 70
     1
102
RTVSPropertyOp31
 70
     1
102
RTVSPropertyOp32
 70
     1
102
RTVSPropertyOp33
 70
     1
102
RTVSPropertyOp34
 70
     1
102
RTVSPropertyOp35
 70
     1
102
RTVSPropertyOp36
 70
     1
102
RTVSPropertyOp37
 70
     1
102
RTVSPropertyOp38
 70
     1
102
RTVSPropertyOp39
 70
     1
102
RTVSPropertyOp40
 70
     1
102
RTVSPropertyOp41
 70
     1
102
RTVSPropertyOp42
 70
     1
102
RTVSPropertyOp43
 70
     1
102
RTVSPropertyOp44
 70
     1
102
RTVSPropertyOp45
 70
     1
102
RTVSPropertyOp46
 70
     1
102
RTVSPropertyOp47
 70
     1
102
RTVSPropertyOp48
 70
     1
102
RTVSPropertyOp49
 70
     1
102
RTVSPropertyOp50
 70
     1
102
RTVSPropertyOp51
 70
     0
102
RTVSPropertyOp52
 70
     0
102
RTVSPropertyOp53
 70
     1
102
RTVSPropertyOp54
 70
     1
102
RTVSPropertyOp55
 70
     1
102
RTVSPropertyOp56
 70
     1
102
RTVSPropertyOp57
 70
     1
102
RTVSPropertyOp58
 70
     1
102
RTVSPropertyOp59
 70
     1
102
RTVSPropertyOp60
 70
     1
102
RTVSPropertyOp61
 70
     1
102
RTVSPropertyOp62
 70
     1
  0
XRECORD
  5
6B4
102
{ACAD_REACTORS
330
6B3
102
}
330
6B3
100
AcDbXrecord
280
     1
102
RTVSPost2010Prop28
280
     0
102
RTVSPost2010PropOp28
 70
     1
102
RTVSPost2010Prop29
280
     1
102
RTVSPost2010PropOp29
 70
     1
102
RTVSPost2010Prop30
280
     1
102
RTVSPost2010PropOp30
 70
     1
102
RTVSPost2010Prop31
280
     0
102
RTVSPost2010PropOp31
 70
     1
102
RTVSPost2010Prop32
280
     0
102
RTVSPost2010PropOp32
 70
     1
102
RTVSPost2010Prop33
280
     0
102
RTVSPost2010PropOp33
 70
     1
102
RTVSPost2010Prop34
280
     0
102
RTVSPost2010PropOp34
 70
     1
102
RTVSPost2010Prop35
280
     0
102
RTVSPost2010PropOp35
 70
     1
102
RTVSPost2010Prop36
280
     0
102
RTVSPost2010PropOp36
 70
     1
102
RTVSPost2010Prop37
 90
       50
102
RTVSPost2010PropOp37
 70
     1
102
RTVSPost2010Prop38
140
0.0
102
RTVSPost2010PropOp38
 70
     1
102
RTVSPost2010Prop39
140
1.0
102
RTVSPost2010PropOp39
 70
     1
102
RTVSPost2010Prop40
 90
        0
102
RTVSPost2010PropOp40
 70
     1
102
RTVSPost2010Prop41ColorIndex
 90
       18
102
RTVSPost2010Prop41ColorRGB
 90
        0
102
RTVSPost2010PropOp41
 70
     1
102
RTVSPost2010Prop42
 90
       50
102
RTVSPost2010PropOp42
 70
     1
102
RTVSPost2010Prop43
 90
        3
102
RTVSPost2010PropOp43
 70
     1
102
RTVSPost2010Prop44ColorIndex
 90
        5
102
RTVSPost2010Prop44ColorRGB
 90
      255
102
RTVSPost2010PropOp44
 70
     1
102
RTVSPost2010Prop45
280
     0
102
RTVSPost2010PropOp45
 70
     1
102
RTVSPost2010Prop46
 90
       50
102
RTVSPost2010PropOp46
 70
     1
102
RTVSPost2010Prop47
 90
       50
102
RTVSPost2010PropOp47
 70
     1
102
RTVSPost2010Prop48
 90
       50
102
RTVSPost2010PropOp48
 70
     1
102
RTVSPost2010Prop49
280
     0
102
RTVSPost2010PropOp49
 70
     1
102
RTVSPost2010Prop50
 90
       50
102
RTVSPost2010PropOp50
 70
     1
102
RTVSPost2010Prop51ColorIndex
 90
      256
102
RTVSPost2010Prop51ColorRGB
 90
-16777216
102
RTVSPost2010PropOp51
 70
     0
102
RTVSPost2010Prop52
140
1.0
102
RTVSPost2010PropOp52
 70
     0
102
RTVSPost2010Prop53
 90
        2
102
RTVSPost2010PropOp53
 70
     1
102
RTVSPost2010Prop54
  1
strokes_ogs.tif
102
RTVSPost2010PropOp54
 70
     1
102
RTVSPost2010Prop55
280
     0
102
RTVSPost2010PropOp55
 70
     1
102
RTVSPost2010Prop56
140
1.0
102
RTVSPost2010PropOp56
 70
     1
102
RTVSPost2010Prop57
140
1.0
102
RTVSPost2010PropOp57
 70
     1
102
RTVSPropertyOp0
 70
     1
102
RTVSPropertyOp1
 70
     1
102
RTVSPropertyOp2
 70
     1
102
RTVSPropertyOp3
 70
     1
102
RTVSPropertyOp4
 70
     1
102
RTVSPropertyOp5
 70
     1
102
RTVSPropertyOp6
 70
     1
102
RTVSPropertyOp7
 70
     1
102
RTVSPropertyOp8
 70
     1
102
RTVSPropertyOp9
 70
     1
102
RTVSPropertyOp10
 70
     1
102
RTVSPropertyOp11
 70
     1
102
RTVSPropertyOp12
 70
     1
102
RTVSPropertyOp13
 70
     1
102
RTVSPropertyOp14
 70
     1
102
RTVSPropertyOp15
 70
     1
102
RTVSPropertyOp16
 70
     1
102
RTVSPropertyOp17
 70
     1
102
RTVSPropertyOp18
 70
     1
102
RTVSPropertyOp19
 70
     1
102
RTVSPropertyOp20
 70
     1
102
RTVSPropertyOp21
 70
     1
102
RTVSPropertyOp22
 70
     1
102
RTVSPropertyOp23
 70
     1
102
RTVSPropertyOp24
 70
     1
102
RTVSPropertyOp25
 70
     1
102
RTVSPropertyOp26
 70
     1
102
RTVSPropertyOp27
 70
     1
102
RTVSPropertyOp28
 70
     1
102
RTVSPropertyOp29
 70
     1
102
RTVSPropertyOp30
 70
     1
102
RTVSPropertyOp31
 70
     1
102
RTVSPropertyOp32
 70
     1
102
RTVSPropertyOp33
 70
     1
102
RTVSPropertyOp34
 70
     1
102
RTVSPropertyOp35
 70
     1
102
RTVSPropertyOp36
 70
     1
102
RTVSPropertyOp37
 70
     1
102
RTVSPropertyOp38
 70
     1
102
RTVSPropertyOp39
 70
     1
102
RTVSPropertyOp40
 70
     1
102
RTVSPropertyOp41
 70
     1
102
RTVSPropertyOp42
 70
     1
102
RTVSPropertyOp43
 70
     1
102
RTVSPropertyOp44
 70
     1
102
RTVSPropertyOp45
 70
     1
102
RTVSPropertyOp46
 70
     1
102
RTVSPropertyOp47
 70
     1
102
RTVSPropertyOp48
 70
     1
102
RTVSPropertyOp49
 70
     1
102
RTVSPropertyOp50
 70
     1
102
RTVSPropertyOp51
 70
     0
102
RTVSPropertyOp52
 70
     0
102
RTVSPropertyOp53
 70
     1
102
RTVSPropertyOp54
 70
     1
102
RTVSPropertyOp55
 70
     1
102
RTVSPropertyOp56
 70
     1
102
RTVSPropertyOp57
 70
     1
102
RTVSPropertyOp58
 70
     1
102
RTVSPropertyOp59
 70
     1
102
RTVSPropertyOp60
 70
     1
102
RTVSPropertyOp61
 70
     1
102
RTVSPropertyOp62
 70
     1
  0
ENDSEC
  0
EOF
