  0
SECTION
  2
HEADER
  9
$ACADVER
  1
AC1015
  9
$ACADMAINTVER
 70
    20
  9
$DWGCODEPAGE
  3
ANSI_1252
  9
$INSBASE
 10
0.0
 20
0.0
 30
0.0
  9
$EXTMIN
 10
0.0000000064992243
 20
-0.0000000100690745
 30
0.0
  9
$EXTMAX
 10
2.362000017843139
 20
0.7090000113163431
 30
0.0
  9
$LIMMIN
 10
0.0
 20
0.0
  9
$LIMMAX
 10
420.0
 20
297.0
  9
$ORTHOMODE
 70
     0
  9
$REGENMODE
 70
     1
  9
$FILLMODE
 70
     1
  9
$QTEXTMODE
 70
     0
  9
$MIRRTEXT
 70
     0
  9
$LTSCALE
 40
1.0
  9
$ATTMODE
 70
     1
  9
$TEXTSIZE
 40
2.5
  9
$TRACEWID
 40
1.0
  9
$TEXTSTYLE
  7
Standard
  9
$CLAYER
  8
0
  9
$CELTYPE
  6
ByLayer
  9
$CECOLOR
 62
   256
  9
$CELTSCALE
 40
1.0
  9
$DISPSILH
 70
     0
  9
$DIMSCALE
 40
1.0
  9
$DIMASZ
 40
2.5
  9
$DIMEXO
 40
0.625
  9
$DIMDLI
 40
3.75
  9
$DIMRND
 40
0.0
  9
$DIMDLE
 40
0.0
  9
$DIMEXE
 40
1.25
  9
$DIMTP
 40
0.0
  9
$DIMTM
 40
0.0
  9
$DIMTXT
 40
2.5
  9
$DIMCEN
 40
2.5
  9
$DIMTSZ
 40
0.0
  9
$DIMTOL
 70
     0
  9
$DIMLIM
 70
     0
  9
$DIMTIH
 70
     0
  9
$DIMTOH
 70
     0
  9
$DIMSE1
 70
     0
  9
$DIMSE2
 70
     0
  9
$DIMTAD
 70
     1
  9
$DIMZIN
 70
     8
  9
$DIMBLK
  1

  9
$DIMASO
 70
     1
  9
$DIMSHO
 70
     1
  9
$DIMPOST
  1

  9
$DIMAPOST
  1

  9
$DIMALT
 70
     0
  9
$DIMALTD
 70
     3
  9
$DIMALTF
 40
0.03937007874016
  9
$DIMLFAC
 40
1.0
  9
$DIMTOFL
 70
     1
  9
$DIMTVP
 40
0.0
  9
$DIMTIX
 70
     0
  9
$DIMSOXD
 70
     0
  9
$DIMSAH
 70
     0
  9
$DIMBLK1
  1

  9
$DIMBLK2
  1

  9
$DIMSTYLE
  2
ISO-25
  9
$DIMCLRD
 70
     0
  9
$DIMCLRE
 70
     0
  9
$DIMCLRT
 70
     0
  9
$DIMTFAC
 40
1.0
  9
$DIMGAP
 40
0.625
  9
$DIMJUST
 70
     0
  9
$DIMSD1
 70
     0
  9
$DIMSD2
 70
     0
  9
$DIMTOLJ
 70
     0
  9
$DIMTZIN
 70
     8
  9
$DIMALTZ
 70
     0
  9
$DIMALTTZ
 70
     0
  9
$DIMUPT
 70
     0
  9
$DIMDEC
 70
     2
  9
$DIMTDEC
 70
     2
  9
$DIMALTU
 70
     2
  9
$DIMALTTD
 70
     3
  9
$DIMTXSTY
  7
Standard
  9
$DIMAUNIT
 70
     0
  9
$DIMADEC
 70
     0
  9
$DIMALTRND
 40
0.0
  9
$DIMAZIN
 70
     0
  9
$DIMDSEP
 70
    44
  9
$DIMATFIT
 70
     3
  9
$DIMFRAC
 70
     0
  9
$DIMLDRBLK
  1

  9
$DIMLUNIT
 70
     2
  9
$DIMLWD
 70
    -2
  9
$DIMLWE
 70
    -2
  9
$DIMTMOVE
 70
     0
  9
$LUNITS
 70
     2
  9
$LUPREC
 70
     4
  9
$SKETCHINC
 40
1.0
  9
$FILLETRAD
 40
0.0
  9
$AUNITS
 70
     0
  9
$AUPREC
 70
     0
  9
$MENU
  1
.
  9
$ELEVATION
 40
0.0
  9
$PELEVATION
 40
0.0
  9
$THICKNESS
 40
0.0
  9
$LIMCHECK
 70
     0
  9
$CHAMFERA
 40
0.0
  9
$CHAMFERB
 40
0.0
  9
$CHAMFERC
 40
0.0
  9
$CHAMFERD
 40
0.0
  9
$SKPOLY
 70
     0
  9
$TDCREATE
 40
2458166.469966319
  9
$TDUCREATE
 40
2458166.678299653
  9
$TDUPDATE
 40
2458166.479873171
  9
$TDUUPDATE
 40
2458166.688206505
  9
$TDINDWG
 40
0.0016919329
  9
$TDUSRTIMER
 40
0.0016916782
  9
$USRTIMER
 70
     1
  9
$ANGBASE
 50
0.0
  9
$ANGDIR
 70
     0
  9
$PDMODE
 70
     0
  9
$PDSIZE
 40
0.0
  9
$PLINEWID
 40
0.0
  9
$SPLFRAME
 70
     0
  9
$SPLINETYPE
 70
     6
  9
$SPLINESEGS
 70
     8
  9
$HANDSEED
  5
443
  9
$SURFTAB1
 70
     6
  9
$SURFTAB2
 70
     6
  9
$SURFTYPE
 70
     6
  9
$SURFU
 70
     6
  9
$SURFV
 70
     6
  9
$UCSBASE
  2

  9
$UCSNAME
  2

  9
$UCSORG
 10
0.0
 20
0.0
 30
0.0
  9
$UCSXDIR
 10
1.0
 20
0.0
 30
0.0
  9
$UCSYDIR
 10
0.0
 20
1.0
 30
0.0
  9
$UCSORTHOREF
  2

  9
$UCSORTHOVIEW
 70
     0
  9
$UCSORGTOP
 10
0.0
 20
0.0
 30
0.0
  9
$UCSORGBOTTOM
 10
0.0
 20
0.0
 30
0.0
  9
$UCSORGLEFT
 10
0.0
 20
0.0
 30
0.0
  9
$UCSORGRIGHT
 10
0.0
 20
0.0
 30
0.0
  9
$UCSORGFRONT
 10
0.0
 20
0.0
 30
0.0
  9
$UCSORGBACK
 10
0.0
 20
0.0
 30
0.0
  9
$PUCSBASE
  2

  9
$PUCSNAME
  2

  9
$PUCSORG
 10
0.0
 20
0.0
 30
0.0
  9
$PUCSXDIR
 10
1.0
 20
0.0
 30
0.0
  9
$PUCSYDIR
 10
0.0
 20
1.0
 30
0.0
  9
$PUCSORTHOREF
  2

  9
$PUCSORTHOVIEW
 70
     0
  9
$PUCSORGTOP
 10
0.0
 20
0.0
 30
0.0
  9
$PUCSORGBOTTOM
 10
0.0
 20
0.0
 30
0.0
  9
$PUCSORGLEFT
 10
0.0
 20
0.0
 30
0.0
  9
$PUCSORGRIGHT
 10
0.0
 20
0.0
 30
0.0
  9
$PUCSORGFRONT
 10
0.0
 20
0.0
 30
0.0
  9
$PUCSORGBACK
 10
0.0
 20
0.0
 30
0.0
  9
$USERI1
 70
     0
  9
$USERI2
 70
     0
  9
$USERI3
 70
     0
  9
$USERI4
 70
     0
  9
$USERI5
 70
     0
  9
$USERR1
 40
0.0
  9
$USERR2
 40
0.0
  9
$USERR3
 40
0.0
  9
$USERR4
 40
0.0
  9
$USERR5
 40
0.0
  9
$WORLDVIEW
 70
     1
  9
$SHADEDGE
 70
     3
  9
$SHADEDIF
 70
    70
  9
$TILEMODE
 70
     1
  9
$MAXACTVP
 70
    64
  9
$PINSBASE
 10
0.0
 20
0.0
 30
0.0
  9
$PLIMCHECK
 70
     0
  9
$PEXTMIN
 10
0.0
 20
0.0
 30
0.0
  9
$PEXTMAX
 10
0.0
 20
0.0
 30
0.0
  9
$PLIMMIN
 10
0.0
 20
0.0
  9
$PLIMMAX
 10
12.0
 20
9.0
  9
$UNITMODE
 70
     0
  9
$VISRETAIN
 70
     1
  9
$PLINEGEN
 70
     0
  9
$PSLTSCALE
 70
     1
  9
$TREEDEPTH
 70
  3020
  9
$CMLSTYLE
  2
Standard
  9
$CMLJUST
 70
     0
  9
$CMLSCALE
 40
20.0
  9
$PROXYGRAPHICS
 70
     1
  9
$MEASUREMENT
 70
     1
  9
$CELWEIGHT
370
    -1
  9
$ENDCAPS
280
     0
  9
$JOINSTYLE
280
     0
  9
$LWDISPLAY
290
     0
  9
$INSUNITS
 70
     1
  9
$HYPERLINKBASE
  1

  9
$STYLESHEET
  1

  9
$XEDIT
290
     1
  9
$CEPSNTYPE
380
     0
  9
$PSTYLEMODE
290
     1
  9
$FINGERPRINTGUID
  2
{E3E9843C-4F12-46E4-9102-C17839327532}
  9
$VERSIONGUID
  2
{248D05B3-4F0C-44EB-9F2F-42E39D6EE7DD}
  9
$EXTNAMES
290
     1
  9
$PSVPSCALE
 40
0.0
  9
$OLESTARTUP
290
     0
  0
ENDSEC
  0
SECTION
  2
CLASSES
  0
CLASS
  1
ACDBDICTIONARYWDFLT
  2
AcDbDictionaryWithDefault
  3
ObjectDBX Classes
 90
        0
280
     0
281
     0
  0
CLASS
  1
ACDBPLACEHOLDER
  2
AcDbPlaceHolder
  3
ObjectDBX Classes
 90
        0
280
     0
281
     0
  0
CLASS
  1
LAYOUT
  2
AcDbLayout
  3
ObjectDBX Classes
 90
        0
280
     0
281
     0
  0
CLASS
  1
DICTIONARYVAR
  2
AcDbDictionaryVar
  3
ObjectDBX Classes
 90
        0
280
     0
281
     0
  0
CLASS
  1
TABLESTYLE
  2
AcDbTableStyle
  3
ObjectDBX Classes
 90
     4095
280
     0
281
     0
  0
CLASS
  1
MATERIAL
  2
AcDbMaterial
  3
ObjectDBX Classes
 90
     1153
280
     0
281
     0
  0
CLASS
  1
VISUALSTYLE
  2
AcDbVisualStyle
  3
ObjectDBX Classes
 90
     4095
280
     0
281
     0
  0
CLASS
  1
SCALE
  2
AcDbScale
  3
ObjectDBX Classes
 90
     1153
280
     0
281
     0
  0
CLASS
  1
MLEADERSTYLE
  2
AcDbMLeaderStyle
  3
ACDB_MLEADERSTYLE_CLASS
 90
     4095
280
     0
281
     0
  0
CLASS
  1
CELLSTYLEMAP
  2
AcDbCellStyleMap
  3
ObjectDBX Classes
 90
     1152
280
     0
281
     0
  0
CLASS
  1
EXACXREFPANELOBJECT
  2
ExAcXREFPanelObject
  3
EXAC_ESW
 90
    33793
280
     0
281
     0
  0
CLASS
  1
NPOCOLLECTION
  2
AcDbImpNonPersistentObjectsCollection
  3
ObjectDBX Classes
 90
    33921
280
     0
281
     0
  0
CLASS
  1
LAYER_INDEX
  2
AcDbLayerIndex
  3
ObjectDBX Classes
 90
    32768
280
     0
281
     0
  0
CLASS
  1
SPATIAL_INDEX
  2
AcDbSpatialIndex
  3
ObjectDBX Classes
 90
    32768
280
     0
281
     0
  0
CLASS
  1
IDBUFFER
  2
AcDbIdBuffer
  3
ObjectDBX Classes
 90
    32768
280
     0
281
     0
  0
CLASS
  1
ACDBSECTIONVIEWSTYLE
  2
AcDbSectionViewStyle
  3
ObjectDBX Classes
 90
     1025
280
     0
281
     0
  0
CLASS
  1
ACDBDETAILVIEWSTYLE
  2
AcDbDetailViewStyle
  3
ObjectDBX Classes
 90
     1025
280
     0
281
     0
  0
CLASS
  1
SORTENTSTABLE
  2
AcDbSortentsTable
  3
ObjectDBX Classes
 90
        0
280
     0
281
     0
  0
ENDSEC
  0
SECTION
  2
TABLES
  0
TABLE
  2
VPORT
  5
8
330
0
100
AcDbSymbolTable
 70
     1
  0
VPORT
  5
EA
330
8
100
AcDbSymbolTableRecord
100
AcDbViewportTableRecord
  2
*Active
 70
     0
 10
0.0
 20
0.0
 11
1.0
 21
1.0
 12
1.16871995218662
 22
0.0769824346295147
 13
0.0
 23
0.0
 14
10.0
 24
10.0
 15
10.0
 25
10.0
 16
0.0
 26
0.0
 36
1.0
 17
0.0
 27
0.0
 37
0.0
 40
2.62294131059586
 41
1.473039215686274
 42
50.0
 43
0.0
 44
0.0
 50
0.0
 51
0.0
 71
     0
 72
  1000
 73
     1
 74
     3
 75
     0
 76
     0
 77
     0
 78
     0
281
     0
 65
     1
110
0.0
120
0.0
130
0.0
111
1.0
121
0.0
131
0.0
112
0.0
122
1.0
132
0.0
 79
     0
146
0.0
1001
ACAD_NAV_VCDISPLAY
1070
     3
  0
ENDTAB
  0
TABLE
  2
LTYPE
  5
5
330
0
100
AcDbSymbolTable
 70
     1
  0
LTYPE
  5
14
330
5
100
AcDbSymbolTableRecord
100
AcDbLinetypeTableRecord
  2
ByBlock
 70
     0
  3

 72
    65
 73
     0
 40
0.0
  0
LTYPE
  5
15
330
5
100
AcDbSymbolTableRecord
100
AcDbLinetypeTableRecord
  2
ByLayer
 70
     0
  3

 72
    65
 73
     0
 40
0.0
  0
LTYPE
  5
16
330
5
100
AcDbSymbolTableRecord
100
AcDbLinetypeTableRecord
  2
Continuous
 70
     0
  3
Solid line
 72
    65
 73
     0
 40
0.0
  0
ENDTAB
  0
TABLE
  2
LAYER
  5
2
102
{ACAD_XDICTIONARY
360
1FF
102
}
330
0
100
AcDbSymbolTable
 70
    12
  0
LAYER
  5
10
102
{ACAD_XDICTIONARY
360
13C
102
}
330
2
100
AcDbSymbolTableRecord
100
AcDbLayerTableRecord
  2
0
 70
     0
 62
     7
  6
Continuous
370
    -3
390
F
  0
LAYER
  5
231
102
{ACAD_XDICTIONARY
360
232
102
}
330
2
100
AcDbSymbolTableRecord
100
AcDbLayerTableRecord
  2
L01
 70
     0
 62
    80
  6
Continuous
370
    -3
390
F
  0
LAYER
  5
233
102
{ACAD_XDICTIONARY
360
234
102
}
330
2
100
AcDbSymbolTableRecord
100
AcDbLayerTableRecord
  2
OUTLINE
 70
     0
 62
     7
  6
Continuous
370
    -3
390
F
  0
LAYER
  5
235
102
{ACAD_XDICTIONARY
360
236
102
}
330
2
100
AcDbSymbolTableRecord
100
AcDbLayerTableRecord
  2
FAB
 70
     0
 62
     7
  6
Continuous
370
    -3
390
F
  0
LAYER
  5
237
102
{ACAD_XDICTIONARY
360
238
102
}
330
2
100
AcDbSymbolTableRecord
100
AcDbLayerTableRecord
  2
PLATED
 70
     0
 62
     8
  6
Continuous
370
    -3
390
F
  0
LAYER
  5
239
102
{ACAD_XDICTIONARY
360
23A
102
}
330
2
100
AcDbSymbolTableRecord
100
AcDbLayerTableRecord
  2
L04
 70
     0
 62
   172
  6
Continuous
370
    -3
390
F
  0
LAYER
  5
23B
330
2
100
AcDbSymbolTableRecord
100
AcDbLayerTableRecord
  2
NON-PLATED
 70
     0
 62
     7
  6
Continuous
370
    -3
390
F
  0
LAYER
  5
23C
102
{ACAD_XDICTIONARY
360
23D
102
}
330
2
100
AcDbSymbolTableRecord
100
AcDbLayerTableRecord
  2
SSB-WHITE
 70
     0
 62
     8
  6
Continuous
370
    -3
390
F
  0
LAYER
  5
23E
330
2
100
AcDbSymbolTableRecord
100
AcDbLayerTableRecord
  2
SST-BLUE
 70
     0
 62
   174
  6
Continuous
370
    -3
390
F
1001
ACAECLAYERSTANDARD
1000

1000

  0
LAYER
  5
23F
330
2
100
AcDbSymbolTableRecord
100
AcDbLayerTableRecord
  2
L02
 70
     0
 62
   172
  6
Continuous
370
    -3
390
F
1001
ACAECLAYERSTANDARD
1000

1000

1001
AcCmTransparency
1071
        0
  0
LAYER
  5
240
330
2
100
AcDbSymbolTableRecord
100
AcDbLayerTableRecord
  2
L03
 70
     0
 62
   172
  6
Continuous
370
    -3
390
F
1001
ACAECLAYERSTANDARD
1000

1000

1001
AcCmTransparency
1071
        0
  0
LAYER
  5
241
330
2
100
AcDbSymbolTableRecord
100
AcDbLayerTableRecord
  2
SSB-BLUE
 70
     0
 62
   140
  6
Continuous
370
    -3
390
F
1001
ACAECLAYERSTANDARD
1000

1000

1001
AcCmTransparency
1071
        0
  0
ENDTAB
  0
TABLE
  2
STYLE
  5
3
330
0
100
AcDbSymbolTable
 70
     2
  0
STYLE
  5
11
330
3
100
AcDbSymbolTableRecord
100
AcDbTextStyleTableRecord
  2
Standard
 70
     0
 40
0.0
 41
1.0
 50
0.0
 71
     0
 42
2.5
  3
arial.ttf
  4

1001
ACAD
1000
Arial
1071
       34
  0
STYLE
  5
132
330
3
100
AcDbSymbolTableRecord
100
AcDbTextStyleTableRecord
  2
Annotative
 70
     0
 40
0.0
 41
1.0
 50
0.0
 71
     0
 42
2.5
  3
arial.ttf
  4

1001
AcadAnnotative
1000
AnnotativeData
1002
{
1070
     1
1070
     1
1002
}
1001
ACAD
1000
Arial
1071
       34
  0
ENDTAB
  0
TABLE
  2
VIEW
  5
6
330
0
100
AcDbSymbolTable
 70
     0
  0
ENDTAB
  0
TABLE
  2
UCS
  5
7
330
0
100
AcDbSymbolTable
 70
     0
  0
ENDTAB
  0
TABLE
  2
APPID
  5
9
330
0
100
AcDbSymbolTable
 70
    10
  0
APPID
  5
12
330
9
100
AcDbSymbolTableRecord
100
AcDbRegAppTableRecord
  2
ACAD
 70
     0
  0
APPID
  5
9E
330
9
100
AcDbSymbolTableRecord
100
AcDbRegAppTableRecord
  2
ACAD_PSEXT
 70
     0
  0
APPID
  5
133
330
9
100
AcDbSymbolTableRecord
100
AcDbRegAppTableRecord
  2
AcadAnnoPO
 70
     0
  0
APPID
  5
134
330
9
100
AcDbSymbolTableRecord
100
AcDbRegAppTableRecord
  2
AcadAnnotative
 70
     0
  0
APPID
  5
135
330
9
100
AcDbSymbolTableRecord
100
AcDbRegAppTableRecord
  2
ACAD_DSTYLE_DIMJAG
 70
     0
  0
APPID
  5
136
330
9
100
AcDbSymbolTableRecord
100
AcDbRegAppTableRecord
  2
ACAD_DSTYLE_DIMTALN
 70
     0
  0
APPID
  5
165
330
9
100
AcDbSymbolTableRecord
100
AcDbRegAppTableRecord
  2
ACAD_MLEADERVER
 70
     0
  0
APPID
  5
217
330
9
100
AcDbSymbolTableRecord
100
AcDbRegAppTableRecord
  2
ACAD_NAV_VCDISPLAY
 70
     0
  0
APPID
  5
242
330
9
100
AcDbSymbolTableRecord
100
AcDbRegAppTableRecord
  2
ACAECLAYERSTANDARD
 70
     0
  0
APPID
  5
243
330
9
100
AcDbSymbolTableRecord
100
AcDbRegAppTableRecord
  2
AcCmTransparency
 70
     0
  0
ENDTAB
  0
TABLE
  2
DIMSTYLE
  5
A
330
0
100
AcDbSymbolTable
 70
     3
100
AcDbDimStyleTable
 71
     2
340
27
340
137
  0
DIMSTYLE
105
1B0
330
A
100
AcDbSymbolTableRecord
100
AcDbDimStyleTableRecord
  2
Standard
 70
     0
340
11
  0
DIMSTYLE
105
137
330
A
100
AcDbSymbolTableRecord
100
AcDbDimStyleTableRecord
  2
Annotative
 70
     0
 40
0.0
 41
2.5
 42
0.625
 43
3.75
 44
1.25
 73
     0
 74
     0
 77
     1
 78
     8
140
2.5
141
2.5
143
0.03937007874016
147
0.625
171
     3
172
     1
271
     2
272
     2
274
     3
278
    44
283
     0
284
     8
340
11
1001
AcadAnnotative
1000
AnnotativeData
1002
{
1070
     1
1070
     1
1002
}
1001
ACAD_DSTYLE_DIMJAG
1070
   388
1040
1.5
1001
ACAD_DSTYLE_DIMTALN
1070
   392
1070
     0
  0
DIMSTYLE
105
27
330
A
100
AcDbSymbolTableRecord
100
AcDbDimStyleTableRecord
  2
ISO-25
 70
     0
 41
2.5
 42
0.625
 43
3.75
 44
1.25
 73
     0
 74
     0
 77
     1
 78
     8
140
2.5
141
2.5
143
0.03937007874016
147
0.625
171
     3
172
     1
271
     2
272
     2
274
     3
278
    44
283
     0
284
     8
340
11
  0
ENDTAB
  0
TABLE
  2
BLOCK_RECORD
  5
1
330
0
100
AcDbSymbolTable
 70
     2
  0
BLOCK_RECORD
  5
1F
102
{ACAD_XDICTIONARY
360
1CE
102
}
330
1
100
AcDbSymbolTableRecord
100
AcDbBlockTableRecord
  2
*Model_Space
340
22
  0
BLOCK_RECORD
  5
D2
330
1
100
AcDbSymbolTableRecord
100
AcDbBlockTableRecord
  2
*Paper_Space
340
D3
  0
BLOCK_RECORD
  5
D6
330
1
100
AcDbSymbolTableRecord
100
AcDbBlockTableRecord
  2
*Paper_Space0
340
D7
  0
ENDTAB
  0
ENDSEC
  0
SECTION
  2
BLOCKS
  0
BLOCK
  5
20
330
1F
100
AcDbEntity
  8
0
100
AcDbBlockBegin
  2
*Model_Space
 70
     0
 10
0.0
 20
0.0
 30
0.0
  3
*Model_Space
  1

  0
ENDBLK
  5
21
330
1F
100
AcDbEntity
  8
0
100
AcDbBlockEnd
  0
BLOCK
  5
D4
330
D2
100
AcDbEntity
 67
     1
  8
0
100
AcDbBlockBegin
  2
*Paper_Space
 70
     0
 10
0.0
 20
0.0
 30
0.0
  3
*Paper_Space
  1

  0
ENDBLK
  5
D5
330
D2
100
AcDbEntity
 67
     1
  8
0
100
AcDbBlockEnd
  0
BLOCK
  5
D8
330
D6
100
AcDbEntity
 67
     1
  8
0
100
AcDbBlockBegin
  2
*Paper_Space0
 70
     0
 10
0.0
 20
0.0
 30
0.0
  3
*Paper_Space0
  1

  0
ENDBLK
  5
D9
330
D6
100
AcDbEntity
 67
     1
  8
0
100
AcDbBlockEnd
  0
ENDSEC
  0
SECTION
  2
ENTITIES
  0
LWPOLYLINE
  5
3BE
330
1F
100
AcDbEntity
  8
OUTLINE
370
     0
100
AcDbPolyline
 90
        4
 70
     1
 43
0.0
 10
0.0000000064992536
 20
0.7090000113163431
 10
0.0000000064992536
 20
0.0000000113163328
 10
2.362000006499247
 20
0.0000000113163328
 10
2.362000006499247
 20
0.7090000113163431
  0
CIRCLE
  5
3BF
330
1F
100
AcDbEntity
  8
PLATED
370
     0
100
AcDbCircle
 10
2.347000006499262
 20
0.3975000113163363
 30
0.0
 40
0.006
  0
CIRCLE
  5
3C0
330
1F
100
AcDbEntity
  8
PLATED
370
     0
100
AcDbCircle
 10
0.0110000064992759
 20
0.3755000113162907
 30
0.0
 40
0.004
  0
CIRCLE
  5
3C1
330
1F
100
AcDbEntity
  8
PLATED
370
     0
100
AcDbCircle
 10
2.347000006499262
 20
0.4225000113163171
 30
0.0
 40
0.006
  0
CIRCLE
  5
3C2
330
1F
100
AcDbEntity
  8
PLATED
370
     0
100
AcDbCircle
 10
0.0110000064992759
 20
0.3335000113163717
 30
0.0
 40
0.004
  0
CIRCLE
  5
3C3
330
1F
100
AcDbEntity
  8
PLATED
370
     0
100
AcDbCircle
 10
0.0150000064992382
 20
0.3115000113163227
 30
0.0
 40
0.006
  0
CIRCLE
  5
3C4
330
1F
100
AcDbEntity
  8
PLATED
370
     0
100
AcDbCircle
 10
2.351000006499223
 20
0.3755000113162907
 30
0.0
 40
0.004
  0
CIRCLE
  5
3C5
330
1F
100
AcDbEntity
  8
PLATED
370
     0
100
AcDbCircle
 10
0.0150000064992382
 20
0.286500011316348
 30
0.0
 40
0.006
  0
CIRCLE
  5
3C6
330
1F
100
AcDbEntity
  8
PLATED
370
     0
100
AcDbCircle
 10
0.0150000064992382
 20
0.4225000113163171
 30
0.0
 40
0.006
  0
CIRCLE
  5
3C7
330
1F
100
AcDbEntity
  8
PLATED
370
     0
100
AcDbCircle
 10
2.347000006499262
 20
0.286500011316348
 30
0.0
 40
0.006
  0
CIRCLE
  5
3C8
330
1F
100
AcDbEntity
  8
PLATED
370
     0
100
AcDbCircle
 10
0.0150000064992382
 20
0.3975000113163363
 30
0.0
 40
0.006
  0
CIRCLE
  5
3C9
330
1F
100
AcDbEntity
  8
PLATED
370
     0
100
AcDbCircle
 10
2.351000006499223
 20
0.3335000113163717
 30
0.0
 40
0.004
  0
CIRCLE
  5
3CA
330
1F
100
AcDbEntity
  8
PLATED
370
     0
100
AcDbCircle
 10
2.347000006499262
 20
0.3115000113163227
 30
0.0
 40
0.006
  0
LWPOLYLINE
  5
3CB
330
1F
100
AcDbEntity
  8
L02
370
     0
100
AcDbPolyline
 90
        4
 70
     1
 43
0.0
 10
0.0000000064992536
 20
0.6940000113163585
 10
0.0000000064992536
 20
0.0150000113163182
 10
2.362000006499247
 20
0.0150000113163182
 10
2.362000006499247
 20
0.6940000113163585
  0
LWPOLYLINE
  5
3CC
330
1F
100
AcDbEntity
  8
L01
  6
Continuous
370
     0
100
AcDbPolyline
 90
       12
 70
     1
 43
0.0
 10
0.0000000064992536
 20
0.3600000113163171
 10
0.0000000064992536
 20
0.3600000113163224
 10
0.0000000064992536
 20
0.3490000113163534
 10
0.0000000064992536
 20
0.3490000113163481
 10
0.0500000064992632
 20
0.345850011316343
 10
2.312000006499236
 20
0.345850011316343
 10
2.362000006499247
 20
0.3490000113163481
 10
2.362000006499247
 20
0.3490000113163481
 10
2.362000006499247
 20
0.3600000113163171
 10
2.362000006499247
 20
0.3600000113163171
 10
2.312000006499236
 20
0.3631500113163231
 10
0.0500000064992632
 20
0.3631500113163231
  0
TEXT
  5
3CD
330
1F
100
AcDbEntity
  8
SST-BLUE
370
     0
100
AcDbText
 10
0.9103681164887255
 20
0.2032039187604861
 30
0.0
 40
0.05
  1
020-020-2.362Fn
 72
     1
 11
1.178325142409598
 21
0.2282039187604861
 31
0.0
100
AcDbText
 73
     2
1001
ACAD
1000
ACAD_MTEXT_DEFINED_HEIGHT_BEGIN
1070
    46
1040
0.0612507874
1000
ACAD_MTEXT_DEFINED_HEIGHT_END
  0
TEXT
  5
3CE
330
1F
100
AcDbEntity
  8
SST-BLUE
370
     0
100
AcDbText
 10
1.029557393150198
 20
0.0326004942260529
 30
0.0
 40
0.05
  1
8 RO4003
 72
     1
 11
1.188766124391671
 21
0.0576004942260529
 31
0.0
100
AcDbText
 73
     2
1001
ACAD
1000
ACAD_MTEXT_DEFINED_HEIGHT_BEGIN
1070
    46
1040
0.0613298429
1000
ACAD_MTEXT_DEFINED_HEIGHT_END
  0
TEXT
  5
3CF
330
1F
100
AcDbEntity
  8
SST-BLUE
370
     0
100
AcDbText
 10
0.9794079344747366
 20
0.1167724717434661
 30
0.0
 40
0.05
  1
W17.3 11-50
 72
     1
 11
1.179373828062731
 21
0.1417724717434661
 31
0.0
100
AcDbText
 73
     2
1001
ACAD
1000
ACAD_MTEXT_DEFINED_HEIGHT_BEGIN
1070
    46
1040
0.0613298429
1000
ACAD_MTEXT_DEFINED_HEIGHT_END
  0
LWPOLYLINE
  5
3D0
330
1F
100
AcDbEntity
  8
L01
  6
Continuous
370
     0
100
AcDbPolyline
 90
        8
 70
     1
 43
0.0
 10
0.000000006499282
 20
0.3435000113163618
 10
0.0000000064992536
 20
0.3435000113163618
 10
0.0200000064992327
 20
0.3420000113162889
 10
0.0300000064992236
 20
0.3220000113163062
 10
0.0300000064992236
 20
0.2894999990409417
 10
0.2059999982143976
 20
0.2894999990408298
 10
0.2059999982143976
 20
0.1045000113162047
 10
0.0000000064992243
 20
0.1045000113162047
  0
LWPOLYLINE
  5
3D1
330
1F
100
AcDbEntity
  8
L01
  6
Continuous
370
     0
100
AcDbPolyline
 90
        8
 70
     1
 43
0.0
 10
0.000000006499282
 20
0.3655000113160707
 10
0.0000000064992536
 20
0.3655000113160707
 10
0.0200000064992327
 20
0.3670000113161507
 10
0.0300000064992236
 20
0.3870000113161334
 10
0.0300000064992236
 20
0.4195000235914979
 10
0.2059999982143976
 20
0.4195000235916098
 10
0.2059999982143976
 20
0.6045000113162402
 10
0.0000000064992243
 20
0.6045000113162402
  0
LWPOLYLINE
  5
3D2
330
1F
100
AcDbEntity
  8
L01
  6
Continuous
370
     0
100
AcDbPolyline
 90
        8
 70
     1
 43
0.0
 10
2.362000006499219
 20
0.3435000113163618
 10
2.362000006499247
 20
0.3435000113163618
 10
2.342000006499267
 20
0.3420000113162889
 10
2.332000006499278
 20
0.3220000113163062
 10
2.332000006499278
 20
0.2894999990409417
 10
2.156000014784103
 20
0.2894999990408298
 10
2.156000014784103
 20
0.1045000113162047
 10
2.362000006499275
 20
0.1045000113162047
  0
LWPOLYLINE
  5
3D3
330
1F
100
AcDbEntity
  8
L01
  6
Continuous
370
     0
100
AcDbPolyline
 90
        8
 70
     1
 43
0.0
 10
2.362000006499219
 20
0.3655000113160707
 10
2.362000006499247
 20
0.3655000113160707
 10
2.342000006499267
 20
0.3670000113161507
 10
2.332000006499278
 20
0.3870000113161334
 10
2.332000006499278
 20
0.4195000235914979
 10
2.156000014784103
 20
0.4195000235916098
 10
2.156000014784103
 20
0.6045000113162402
 10
2.362000006499275
 20
0.6045000113162402
  0
TEXT
  5
3D4
330
1F
100
AcDbEntity
  8
SST-BLUE
370
     0
100
AcDbText
 10
0.8698155926142373
 20
0.6087048978529439
 30
0.0
 40
0.05
  1
6cm Microstrip DUT
 72
     1
 11
1.178325142409598
 21
0.6337048978529439
 31
0.0
100
AcDbText
 73
     2
1001
ACAD
1000
ACAD_MTEXT_DEFINED_HEIGHT_BEGIN
1070
    46
1040
0.0612507874
1000
ACAD_MTEXT_DEFINED_HEIGHT_END
  0
LWPOLYLINE
  5
3D5
330
1F
100
AcDbEntity
  8
L04
370
     0
100
AcDbPolyline
 90
        4
 70
     1
 43
0.0
 10
0.0000000064992536
 20
0.6940000113163585
 10
0.0000000064992536
 20
0.0150000113163182
 10
2.362000006499247
 20
0.0150000113163182
 10
2.362000006499247
 20
0.6940000113163585
  0
LWPOLYLINE
  5
3D6
330
1F
100
AcDbEntity
  8
L03
370
     0
100
AcDbPolyline
 90
        4
 70
     1
 43
0.0
 10
0.0299999993228877
 20
0.6939999821744403
 10
2.331999999322949
 20
0.6939999821744403
 10
2.331999999322949
 20
0.0149999821744027
 10
0.0299999993228877
 20
0.0149999821744027
  0
LINE
  5
3D7
330
1F
100
AcDbEntity
  8
FAB
370
     0
100
AcDbLine
 10
0.0000000064992536
 20
0.7090000113163431
 30
0.0
 11
0.0000000064992536
 21
0.0000000113163328
 31
0.0
  0
LINE
  5
3D8
330
1F
100
AcDbEntity
  8
FAB
370
     0
100
AcDbLine
 10
0.0000000064992536
 20
0.0000000113163328
 30
0.0
 11
2.362000006499247
 21
0.0000000113163328
 31
0.0
  0
LINE
  5
3D9
330
1F
100
AcDbEntity
  8
FAB
370
     0
100
AcDbLine
 10
2.362000006499247
 20
0.0000000113163328
 30
0.0
 11
2.362000006499247
 21
0.7090000113163431
 31
0.0
  0
LINE
  5
3DA
330
1F
100
AcDbEntity
  8
FAB
370
     0
100
AcDbLine
 10
2.362000006499247
 20
0.7090000113163431
 30
0.0
 11
0.0000000064992536
 21
0.7090000113163431
 31
0.0
  0
CIRCLE
  5
3DB
330
1F
100
AcDbEntity
  8
NON-PLATED
370
     0
100
AcDbCircle
 10
0.1099913638681791
 20
0.5420000056160728
 30
0.0
 40
0.04
  0
CIRCLE
  5
3DC
330
1F
100
AcDbEntity
  8
NON-PLATED
370
     0
100
AcDbCircle
 10
0.1099913638681791
 20
0.1670000170163624
 30
0.0
 40
0.04
  0
CIRCLE
  5
3DD
330
1F
100
AcDbEntity
  8
NON-PLATED
370
     0
100
AcDbCircle
 10
2.252008555324756
 20
0.5420000056160728
 30
0.0
 40
0.04
  0
CIRCLE
  5
3DE
330
1F
100
AcDbEntity
  8
NON-PLATED
370
     0
100
AcDbCircle
 10
2.252008555324756
 20
0.1670000170163624
 30
0.0
 40
0.04
  0
LWPOLYLINE
  5
3DF
330
1F
100
AcDbEntity
  8
SSB-WHITE
370
     0
100
AcDbPolyline
 90
        4
 70
     1
 43
0.0
 10
0.4934999332188719
 20
0.0150000098773537
 10
1.86849993321887
 20
0.0150000098773537
 10
1.86849993321887
 20
0.3150000098773562
 10
0.4934999332188719
 20
0.3150000098773562
  0
LWPOLYLINE
  5
3E0
330
1F
100
AcDbEntity
  8
SSB-BLUE
370
     0
100
AcDbPolyline
 90
      107
 70
     1
 43
0.0
 10
0.3140176918223272
 20
0.2044704585897037
 10
0.3140176918223272
 20
0.2164513544954278
 10
0.3140776569745238
 20
0.2217425771594268
 10
0.3167900433262103
 20
0.2230786488314882
 10
0.3215847741504954
 20
0.2254404451514862
 10
0.3257548017263598
 20
0.2274945236714956
 10
0.3272682123263397
 20
0.2282360918233888
 10
0.3285418162944653
 20
0.2287615853114282
 10
0.3296729925745332
 20
0.2291020159995059
 10
0.3306296104704707
 20
0.2292694330155758
 10
0.3317461364783227
 20
0.2292322516634515
 10
0.3330731751263913
 20
0.2286772847835365
 10
0.3341572225582983
 20
0.2275075009995637
 10
0.3349641387982762
 20
0.2256827368634937
 10
0.3353541728062117
 20
0.2247980003355483
 10
0.3360859401024578
 20
0.2247980003355483
 10
0.3369697122383526
 20
0.2247980003355483
 10
0.3375114734063853
 20
0.2247980003355483
 10
0.3375357582385092
 20
0.2280103208234987
 10
0.3375357582385092
 20
0.2383925401513958
 10
0.3375357582385092
 20
0.2497770033193927
 10
0.3375357582385092
 20
0.2556491247434316
 10
0.3371957709023183
 20
0.2556856958234839
 10
0.3363646156943663
 20
0.2556856958234839
 10
0.3355334604864133
 20
0.2556856958234839
 10
0.3351770653824326
 20
0.2555798479514584
 10
0.3348880713264659
 20
0.2542807694954883
 10
0.3344557232544583
 20
0.2531315330954058
 10
0.3338760044784612
 20
0.2521421801594608
 10
0.3331538667503908
 20
0.2513095573033919
 10
0.3321950923102763
 20
0.2504709911595278
 10
0.3308918349264749
 20
0.2496052370235633
 10
0.3292340538144884
 20
0.2487404101514707
 10
0.3260641977743663
 20
0.2472589536555265
 10
0.3072529212385247
 20
0.2380698004874358
 10
0.2804548977263783
 20
0.2249791871594589
 10
0.2605026571582583
 20
0.2152326824954187
 10
0.2568097431023757
 20
0.213443867623516
 10
0.2552815589904176
 20
0.2128286566634783
 10
0.2539387468703076
 20
0.2124343473194639
 10
0.2527863268225152
 20
0.2122589312474981
 10
0.2513799253584423
 20
0.2123672944634531
 10
0.2500313686944997
 20
0.2129746726635027
 10
0.2489404791022371
 20
0.2141298245834529
 10
0.2480952071424607
 20
0.2158688979194716
 10
0.2477136754464944
 20
0.2161905786554197
 10
0.2469524151025046
 20
0.2161905786554197
 10
0.2461554703824182
 20
0.2161905786554197
 10
0.2457867347423379
 20
0.2161905786554197
 10
0.2457867347423379
 20
0.2106228313275018
 10
0.2457867347423379
 20
0.1985893129994878
 10
0.2457867347423379
 20
0.1870946089994607
 10
0.2457970107743463
 20
0.1829796409994557
 10
0.2462618190142898
 20
0.1829796409994557
 10
0.2470834678941829
 20
0.1829796409994557
 10
0.2477980645821933
 20
0.1829796409994557
 10
0.2481888090143451
 20
0.1836037043354111
 10
0.2489715296544643
 20
0.1852842548954827
 10
0.2499674283503452
 20
0.1864238286554203
 10
0.2512066274544598
 20
0.1870103761754898
 10
0.2524494351505027
 20
0.1870746921674318
 10
0.2535144976942032
 20
0.1869072554954982
 10
0.2546656035984887
 20
0.1865581543274208
 10
0.2559087772702799
 20
0.1860193559114114
 10
0.2612454549024097
 20
0.1833245984954077
 10
0.2832520195343564
 20
0.172235050831393
 10
0.3098298549743133
 20
0.1588419488234614
 10
0.3261223314864212
 20
0.1506318441674672
 10
0.3285796216461954
 20
0.1493893675034297
 10
0.3304312589664713
 20
0.1483079227754178
 10
0.3318585491424084
 20
0.1472983094953957
 10
0.3328835820862777
 20
0.1463705687594716
 10
0.3337919179823983
 20
0.1453816838235484
 10
0.3344698403184259
 20
0.1442652857354059
 10
0.3349314954862246
 20
0.1429944108314398
 10
0.3351962465181897
 20
0.1416563988314667
 10
0.3356415429023203
 20
0.1416563988314667
 10
0.3365048531425243
 20
0.1416563988314667
 10
0.3372921608062986
 20
0.1416563988314667
 10
0.3375357582385092
 20
0.1420129711514182
 10
0.3375357582385092
 20
0.1499676108315677
 10
0.3375357582385092
 20
0.1629439747514532
 10
0.3375357582385092
 20
0.173688461335443
 10
0.3374701742782893
 20
0.1760480003355447
 10
0.3368436411504181
 20
0.1760480003355447
 10
0.3359510993182626
 20
0.1760480003355447
 10
0.3352865649025354
 20
0.1760480003355447
 10
0.3349455860304706
 20
0.1748717522234449
 10
0.3341892231504051
 20
0.1731528596714638
 10
0.3330497585903789
 20
0.1720426051754007
 10
0.3315292000704328
 20
0.1715450044874958
 10
0.3304561244302748
 20
0.1715662685355417
 10
0.3295085333182213
 20
0.1718059924875677
 10
0.3283690824862608
 20
0.1722212014635049
 10
0.3270658865664533
 20
0.1727877978315497
 10
0.3252623499743459
 20
0.1736749405035214
 10
0.3208200159744683
 20
0.1758763345034717
 10
0.3161694475583285
 20
0.1781809190714148
 10
0.3140176918223272
 20
0.1792472193194339
 10
0.3140176918223272
 20
0.1792472193194339
 10
0.3140176918223272
 20
0.1863665289194847
 10
0.3140176918223272
 20
0.2044704585897037
 10
0.3014112466465297
 20
0.2044704585897037
 10
0.3014112466465297
 20
0.185226711487501
 10
0.2688477701422034
 20
0.2003849144955527
 10
0.3014112466465297
 20
0.2156383324154607
 10
0.3014112466465297
 20
0.2044704585897037
  0
LWPOLYLINE
  5
3E1
330
1F
100
AcDbEntity
  8
SSB-BLUE
370
     0
100
AcDbPolyline
 90
      107
 70
     1
 43
0.0
 10
0.4207916175743494
 20
0.2059990565096328
 10
0.4285992347423431
 20
0.2059990565096328
 10
0.4285992347423431
 20
0.2137871839994387
 10
0.4286369577263765
 20
0.2171227906635531
 10
0.4303432660702109
 20
0.2179437503354267
 10
0.4333595357421727
 20
0.2193949746554367
 10
0.4359828173905127
 20
0.2206571194875382
 10
0.4369344513984439
 20
0.2211375433274512
 10
0.4377228997343617
 20
0.2215222255995108
 10
0.438410629478458
 20
0.2217681879915387
 10
0.4389855911904644
 20
0.2218874796314827
 10
0.4396787484864131
 20
0.2218608557355139
 10
0.4404997399822337
 20
0.2214797243354667
 10
0.4411625474784886
 20
0.2207116293194327
 10
0.4416752037264349
 20
0.2195666111594328
 10
0.44192294015029
 20
0.219027980911453
 10
0.4423274943264639
 20
0.219027980911453
 10
0.4428160841424607
 20
0.219027980911453
 10
0.4431155941582344
 20
0.219027980911453
 10
0.4431290201424148
 20
0.2210559809114763
 10
0.4431290201424148
 20
0.2276104769114564
 10
0.4431290201424148
 20
0.2347977089114712
 10
0.4431290201424148
 20
0.2385048929114761
 10
0.4429410594863477
 20
0.238527980911523
 10
0.4424815589902487
 20
0.238527980911523
 10
0.4420220588062867
 20
0.238527980911523
 10
0.441820203854241
 20
0.238463016271492
 10
0.4416046418063626
 20
0.2376538264875059
 10
0.4413186382703387
 20
0.2369311433834547
 10
0.4409541608063501
 20
0.2363250902475107
 10
0.4405136005824959
 20
0.2358436411754781
 10
0.4399378011504807
 20
0.2353403268314516
 10
0.4391383195584773
 20
0.2348141500635457
 10
0.4381091313984946
 20
0.2342590861514484
 10
0.4361310336144282
 20
0.2332921547835447
 10
0.4244000913265076
 20
0.2274801682395378
 10
0.4076885158223833
 20
0.2192005730715207
 10
0.3952460547265284
 20
0.2130360708315067
 10
0.3929202993983027
 20
0.2118998373435055
 10
0.3919335981501977
 20
0.2115128637435211
 10
0.3910812915263984
 20
0.211272642775536
 10
0.3903754286543153
 20
0.2111691336555728
 10
0.3894864180384863
 20
0.2112353487915763
 10
0.3886041706463592
 20
0.2116094751674638
 10
0.3878831966783949
 20
0.2123314827915657
 10
0.3873275128221829
 20
0.2134335026715632
 10
0.3871012226542536
 20
0.2136388208235189
 10
0.3866662166544756
 20
0.2136388208235189
 10
0.3862108198943233
 20
0.2136388208235189
 10
0.3860001138143802
 20
0.2136388208235189
 10
0.3860001138143802
 20
0.2101334387354115
 10
0.3860001138143802
 20
0.2025572899994978
 10
0.3860001138143802
 20
0.1953203719994381
 10
0.3860059856543563
 20
0.1927296409994907
 10
0.3862715903182998
 20
0.1927296409994907
 10
0.3867411041424189
 20
0.1927296409994907
 10
0.3871494450622048
 20
0.1927296409994907
 10
0.3873824176464753
 20
0.1931255543355359
 10
0.3878853338784927
 20
0.194195922439528
 10
0.3885430358062605
 20
0.1949261331675283
 10
0.3893675722464742
 20
0.1953041373914157
 10
0.3901581328223988
 20
0.1953429604874852
 10
0.3907934553023926
 20
0.1952153509275387
 10
0.3914945848223761
 20
0.1949663228235128
 10
0.3922695541343168
 20
0.1946079253035329
 10
0.3956135283264759
 20
0.1929096771674432
 10
0.4093862229503067
 20
0.1859251659195413
 10
0.4260198237265032
 20
0.1774898109915082
 10
0.4362163858945128
 20
0.1723188546554653
 10
0.4377250824864767
 20
0.1715236958235007
 10
0.4388575679183227
 20
0.1708223385434451
 10
0.4397303785584344
 20
0.170169023335399
 10
0.4403495381905298
 20
0.1695778079834262
 10
0.4408995118221899
 20
0.1689943264874927
 10
0.4413246988704485
 20
0.1682951316794057
 10
0.4416340281502374
 20
0.1674684939194249
 10
0.4418356313181829
 20
0.1665836450714249
 10
0.4420818114864602
 20
0.1665836450714249
 10
0.4425590888064841
 20
0.1665836450714249
 10
0.4429943481503509
 20
0.1665836450714249
 10
0.4431290201424148
 20
0.1668093159195187
 10
0.4431290201424148
 20
0.1718437310714362
 10
0.4431290201424148
 20
0.1800563467035507
 10
0.4431290201424148
 20
0.1868564288234937
 10
0.4430927623102799
 20
0.1883497581674831
 10
0.4427463861503292
 20
0.1883497581674831
 10
0.4422529484784539
 20
0.1883497581674831
 10
0.4418855634864949
 20
0.1883497581674831
 10
0.4416588855023367
 20
0.187586163439426
 10
0.4411692701422636
 20
0.1864835473275637
 10
0.4404695664624541
 20
0.1857825703754186
 10
0.4395637911504951
 20
0.1854731914874081
 10
0.4389049582222749
 20
0.1854779941034117
 10
0.4383118630704957
 20
0.1855960595835562
 10
0.4376078541022439
 20
0.1858238036715347
 10
0.4368049798224379
 20
0.1861712671515168
 10
0.4356730257263655
 20
0.1867432810874163
 10
0.432878441726361
 20
0.1881603460874057
 10
0.4299528614062274
 20
0.1896438361995578
 10
0.4285992347423431
 20
0.1903302271514828
 10
0.4285992347423431
 20
0.1903302271514828
 10
0.4285992347423431
 20
0.1948189040714627
 10
0.4285992347423431
 20
0.2059990565096328
 10
0.4207916175743494
 20
0.2059990565096328
 10
0.4207916175743494
 20
0.1940626488315011
 10
0.4003585123104783
 20
0.2036983909994197
 10
0.4207916175743494
 20
0.2132960473275283
  0
LWPOLYLINE
  5
3E2
330
1F
100
AcDbEntity
  8
SSB-BLUE
370
     0
100
AcDbPolyline
 90
      206
 70
     1
 43
0.0
 10
0.3946837074862737
 20
0.3603458521514469
 10
0.3946837074862737
 20
0.3603458521514469
 10
0.3947413629023506
 20
0.3588351075914682
 10
0.3948734736863306
 20
0.357367935079492
 10
0.3950804566702022
 20
0.3559453342634491
 10
0.3953627280623912
 20
0.3545683041675165
 10
0.3957207043823922
 20
0.3532378450635463
 10
0.3961548021504146
 20
0.3519549556634027
 10
0.3966654375745184
 20
0.3507206359275159
 10
0.3972530274863493
 20
0.3495358855034478
 10
0.397917988406463
 20
0.3484017037275233
 10
0.3986607362304326
 20
0.3473190902474927
 10
0.3994816881023864
 20
0.3462890443994997
 10
0.4004794475663127
 20
0.3451406416633977
 10
0.4015620345262656
 20
0.3440827853835007
 10
0.4027158467185199
 20
0.3431391806954283
 10
0.403939885430491
 20
0.3423085780394492
 10
0.4052331503903313
 20
0.34158972816744
 10
0.4065946422622533
 20
0.3409813815194891
 10
0.4080233617104652
 20
0.340482288847471
 10
0.4095183090863328
 20
0.3400912009034407
 10
0.4110784847422853
 20
0.3398068675035617
 10
0.4127028896543097
 20
0.3396280400234612
 10
0.4143905235502104
 20
0.3395534689035742
 10
0.4153508969904412
 20
0.3395579741834567
 10
0.4160842785745001
 20
0.3395880385035079
 10
0.4168092567505406
 20
0.3396422768954359
 10
0.4175268311664891
 20
0.3397212718635689
 10
0.4182380008463458
 20
0.3398256068474188
 10
0.4189437660623297
 20
0.3399558646634482
 10
0.4196451258384349
 20
0.3401126284395621
 10
0.4203430795104497
 20
0.3402964813034783
 10
0.4210386273502236
 20
0.3405080063834491
 10
0.4217327680703411
 20
0.3407477864954158
 10
0.4224265019422902
 20
0.3410164047674478
 10
0.4231376017343252
 20
0.341317633591526
 10
0.4238436106223507
 20
0.3416492580794497
 10
0.4245324975744831
 20
0.3420094339994213
 10
0.4252034304863602
 20
0.3423980780475109
 10
0.425855575694369
 20
0.3428151066074667
 10
0.4264881007823611
 20
0.3432604366874887
 10
0.4271001723985038
 20
0.3437339846715082
 10
0.4276909578145203
 20
0.3442356678795111
 10
0.4282596239903489
 20
0.3447654023834668
 10
0.4288053381984334
 20
0.3453231051915697
 10
0.4293272673983584
 20
0.3459086929995356
 10
0.4300276930461946
 20
0.3467397246554107
 10
0.4308238203264123
 20
0.347789499199405
 10
0.4315411513824535
 20
0.3488880842715085
 10
0.4321796032223393
 20
0.3500347298234612
 10
0.4327390922301753
 20
0.3512286861195086
 10
0.4332195351022082
 20
0.3524692040474351
 10
0.4336208491582437
 20
0.3537555335595162
 10
0.4339429501584631
 20
0.3550869249194548
 10
0.4341857557344611
 20
0.3564626290155743
 10
0.4343491819582051
 20
0.3578818954874823
 10
0.4344331458384297
 20
0.3593439752235064
 10
0.4344344283623034
 20
0.3597843060091863
 10
0.4441167396656694
 20
0.3597843060091863
 10
0.4441160904862329
 20
0.3586060789994834
 10
0.4439038534222349
 20
0.3551249711354032
 10
0.4434672041185257
 20
0.3518282390475225
 10
0.4428064751662078
 20
0.3487153825993898
 10
0.4419220004063665
 20
0.3457859029034527
 10
0.4408141127422454
 20
0.3430392991995133
 10
0.4394831457024333
 20
0.3404750725994887
 10
0.4379294318783931
 20
0.3380927229674517
 10
0.4361533044862158
 20
0.3358917501674847
 10
0.4341550970544912
 20
0.3338716549995366
 10
0.4319351427982463
 20
0.3320319376394778
 10
0.4298994242302339
 20
0.3306417670395367
 10
0.4285911742224551
 20
0.3298955953275628
 10
0.4272673385663497
 20
0.3292173912554315
 10
0.4259273350702629
 20
0.3286081547835629
 10
0.4245705799821931
 20
0.3280688849354307
 10
0.4231964904862
 20
0.3276005816714527
 10
0.421804483766346
 20
0.3272042446395682
 10
0.4203939763824201
 20
0.3268808728634127
 10
0.4189643852063459
 20
0.3266314659914551
 10
0.4175151277343235
 20
0.3264570236714448
 10
0.4160456205264929
 20
0.3263585455514804
 10
0.4143599257103059
 20
0.3263389488314017
 10
0.4120267363583761
 20
0.326451241375513
 10
0.4097672623104423
 20
0.3267190159995659
 10
0.4075827525024947
 20
0.3271422727035613
 10
0.4054744568062239
 20
0.327721011487494
 10
0.4034436244704649
 20
0.3284552320394072
 10
0.4014915047422801
 20
0.329344934671437
 10
0.3996193474944238
 20
0.3303901196955428
 10
0.3978284016621822
 20
0.3315907864874568
 10
0.3961199168065192
 20
0.3329469350475218
 10
0.3944951424862841
 20
0.3344585659994887
 10
0.3929595954862979
 20
0.3361127793914376
 10
0.3915683921664632
 20
0.3377896458555565
 10
0.3903073125024834
 20
0.3395692417515157
 10
0.3891768563183167
 20
0.3414523994954477
 10
0.3881775234382898
 20
0.3434399524395513
 10
0.3873098133742214
 20
0.3455327333115647
 10
0.3865742259504339
 20
0.3477315751515437
 10
0.3859712609901828
 20
0.3500373109995518
 10
0.3855014183184906
 20
0.3524507735835067
 10
0.3851651977582593
 20
0.3549727962554261
 10
0.3849630988223813
 20
0.3576042111194839
 10
0.3848956216462467
 20
0.3603458521514469
 10
0.3848956216462467
 20
0.3603458521514469
 10
0.3850569902304697
 20
0.3639497866155086
 10
0.3854375422465086
 20
0.3673580175195239
 10
0.3860361950544666
 20
0.3705710443754917
 10
0.3868518653905148
 20
0.3735893673195205
 10
0.3878834706144056
 20
0.3764134855514678
 10
0.389129927774448
 20
0.3790438988954747
 10
0.3905901545425232
 20
0.3814811074874731
 10
0.3922630676544578
 20
0.3837256111514167
 10
0.3941475844703488
 20
0.3857779090875297
 10
0.3962426220385051
 20
0.3876385014313914
 10
0.3985470977183292
 20
0.3893078880074814
 10
0.3999793652301928
 20
0.390217309663468
 10
0.4013054510301944
 20
0.3909686540234007
 10
0.4026506945662014
 20
0.391639814071433
 10
0.4040159285664862
 20
0.3922314559274378
 10
0.4054019860704017
 20
0.3927442463355604
 10
0.4068097001183553
 20
0.3931788517274617
 10
0.40823990343827
 20
0.3935359379114072
 10
0.4096934290702033
 20
0.3938161716315429
 10
0.4111711097424236
 20
0.394020219319529
 10
0.4126737788064299
 20
0.3941487467834497
 10
0.4142022689904837
 20
0.3942024210794157
 10
0.4153710300382043
 20
0.3941927927594433
 10
0.4164253092385098
 20
0.394144521991473
 10
0.4174710000142037
 20
0.3940587503835307
 10
0.4185074359345036
 20
0.3939357275354567
 10
0.4195339505665299
 20
0.393775703983521
 10
0.4205498774784333
 20
0.3935789293275578
 10
0.4215545505505283
 20
0.3933456531674091
 10
0.422547303350263
 20
0.3930761260395155
 10
0.4235274694465261
 20
0.3927705969194433
 10
0.4244943824064089
 20
0.3924293166554067
 10
0.4254473764223619
 20
0.3920525342235148
 10
0.4264849801584481
 20
0.391599737671565
 10
0.4275439115902931
 20
0.3910925604554567
 10
0.428572486982513
 20
0.3905510935033982
 10
0.4295713727662332
 20
0.3899747546235517
 10
0.4305412350622105
 20
0.3893629600635631
 10
0.4314827403022799
 20
0.3887151270075009
 10
0.4323965552304179
 20
0.3880306723274556
 10
0.4332833456545267
 20
0.3873090132075063
 10
0.434143778318231
 20
0.3865495662074219
 10
0.4349785193422857
 20
0.3857517485114536
 10
0.4357882351585261
 20
0.3849149769915208
 10
0.4369123262304671
 20
0.3836150623755232
 10
0.4382051958863027
 20
0.3818887261274471
 10
0.4393728839665157
 20
0.380060863519545
 10
0.4404146407344527
 20
0.3781310586555318
 10
0.4413297167663029
 20
0.3760988943914567
 10
0.4421173623264814
 20
0.373963955143533
 10
0.4427768276783271
 20
0.3717258234554848
 10
0.4433073633983886
 20
0.3693840837435287
 10
0.4437082197503699
 20
0.3669383188635367
 10
0.4439786466861833
 20
0.3643881129195741
 10
0.4441178950945162
 20
0.3617330490794774
 10
0.4441167704538849
 20
0.3597843060091863
 10
0.4344344283623034
 20
0.3597843060091863
 10
0.4344375665663592
 20
0.3608617500795184
 10
0.4343624369663477
 20
0.3623707480634497
 10
0.4342078356622077
 20
0.3638280385994008
 10
0.4339738459584091
 20
0.3652337059275377
 10
0.4336605511583454
 20
0.3665878324155667
 10
0.4332680348782754
 20
0.367890501991516
 10
0.4327963797983819
 20
0.3691417976475337
 10
0.4322456695342139
 20
0.3703418026875624
 10
0.4316159873902344
 20
0.3714906004155329
 10
0.4309074163584148
 20
0.3725882744475184
 10
0.4301200403664378
 20
0.373634907463531
 10
0.4292168100384517
 20
0.3747009899354783
 10
0.4281678947424519
 20
0.3758175858315162
 10
0.4270521596543953
 20
0.3768243817515398
 10
0.4258708533984743
 20
0.3777216279194988
 10
0.4246252261585229
 20
0.3785095736234441
 10
0.4233165265583896
 20
0.3791884690874987
 10
0.4219460041583459
 20
0.3797585642234731
 10
0.4205149088304277
 20
0.3802201089435178
 10
0.419024489822415
 20
0.3805733528474828
 10
0.4174759960702899
 20
0.3808185461594871
 10
0.4158706774464554
 20
0.3809559384795467
 10
0.4142136217342412
 20
0.3809857787834136
 10
0.4125822891741989
 20
0.3809081678474984
 10
0.4110065787265187
 20
0.3807228950715631
 10
0.4094873228062799
 20
0.3804297099195128
 10
0.4080253547663864
 20
0.3800283634154331
 10
0.4066215073344007
 20
0.3795186050234127
 10
0.4052766132382493
 20
0.3789001848314797
 10
0.4039915061422557
 20
0.3781728535515665
 10
0.4027670181504242
 20
0.3773363606474147
 10
0.4016039826142431
 20
0.3763904565195411
 10
0.4005032325744713
 20
0.3753348912554264
 10
0.3994816656383406
 20
0.3741943465515387
 10
0.3986586798383982
 20
0.3731762044394777
 10
0.3979113063022597
 20
0.3721079011515318
 10
0.3972401281583453
 20
0.3709901024954458
 10
0.3966457288465248
 20
0.3698234752155409
 10
0.3961286908702348
 20
0.368608685431516
 10
0.3956895976704082
 20
0.3673463995755553
 10
0.3953290320622642
 20
0.3660372840794928
 10
0.3950475771742363
 20
0.3646820053755233
 10
0.3948458161344028
 20
0.3632812292715464
 10
0.3947243317583409
 20
0.3618356228235084
  0
LWPOLYLINE
  5
3E3
330
1F
100
AcDbEntity
  8
SSB-BLUE
370
     0
100
AcDbPolyline
 90
        2
 70
     1
 43
0.0
 10
0.418182730982367
 20
0.095458156663546
 10
0.418182730982367
 20
0.095458156663546
  0
LWPOLYLINE
  5
3E4
330
1F
100
AcDbEntity
  8
SSB-BLUE
370
     0
100
AcDbPolyline
 90
      100
 70
     1
 43
0.0
 10
0.4228080991582744
 20
0.095458156663546
 10
0.4308416336542332
 20
0.095458156663546
 10
0.4338360511585249
 20
0.0948773589915364
 10
0.4338360511585249
 20
0.0823431708315168
 10
0.4338360511585249
 20
0.0668272816634064
 10
0.4338183451584881
 20
0.0631994358314527
 10
0.4336453243104837
 20
0.0625665169994383
 10
0.4332792091582159
 20
0.0620236298233961
 10
0.4328277573264155
 20
0.0615925359914229
 10
0.4321608794784942
 20
0.0612178324154256
 10
0.4312156143263186
 20
0.0609527066715607
 10
0.4310938638145201
 20
0.0606433284074761
 10
0.4310938638145201
 20
0.0600234733274228
 10
0.4311632594784447
 20
0.0597335473274567
 10
0.4363223011584969
 20
0.0597335473274567
 10
0.4437913618222034
 20
0.0597335473274567
 10
0.4459473794785405
 20
0.0597812284154538
 10
0.4459473794785405
 20
0.060297428671559
 10
0.4459473794785405
 20
0.0608509447513868
 10
0.4453503443904978
 20
0.0610522346714184
 10
0.4444574989822927
 20
0.0613752754155579
 10
0.4438483713983717
 20
0.0617747243355611
 10
0.4434630841584637
 20
0.062252433151528
 10
0.4432152014061739
 20
0.0628379666715029
 10
0.4431290201424148
 20
0.0635040551594317
 10
0.4431290201424148
 20
0.0768399709995018
 10
0.4431290201424148
 20
0.1000023514875448
 10
0.4431054834862529
 20
0.1086358909995617
 10
0.4425975428063067
 20
0.1086358909995617
 10
0.4419687701422843
 20
0.1086358909995617
 10
0.4416973544784284
 20
0.1082385883274206
 10
0.4413255138142729
 20
0.1075084974074318
 10
0.4408648261583128
 20
0.1069922313195297
 10
0.4403345531422369
 20
0.1066556332395683
 10
0.4396796529742799
 20
0.1064384846714397
 10
0.4388529821425049
 20
0.1063516450875497
 10
0.4270784653103599
 20
0.1063507346715307
 10
0.4021268403264183
 20
0.1063507346715307
 10
0.3903603893183849
 20
0.1063516450875497
 10
0.3895293089903493
 20
0.1064384846714397
 10
0.3887989219822634
 20
0.1066556332395683
 10
0.3882276693264703
 20
0.1069922313195297
 10
0.3877792229905204
 20
0.1075084974074318
 10
0.3874065926544148
 20
0.1082385883274206
 10
0.3871262388143082
 20
0.1086358909995617
 10
0.3865159593262248
 20
0.1086358909995617
 10
0.3860229581422017
 20
0.1086358909995617
 10
0.3860001138143802
 20
0.1001772078315417
 10
0.3860001138143802
 20
0.0774839389994018
 10
0.3860001138143802
 20
0.0644181175035037
 10
0.3859355516543479
 20
0.0636635773274197
 10
0.3857205421584426
 20
0.0630808075035523
 10
0.3852995446462852
 20
0.0626651723355458
 10
0.3846561285742584
 20
0.0622244919915485
 10
0.3838249496544197
 20
0.0618797659995627
 10
0.3832388832385103
 20
0.0616447716553887
 10
0.3832388832385103
 20
0.0611791150875192
 10
0.3832388832385103
 20
0.060744851335552
 10
0.3854059572381905
 20
0.060704738743568
 10
0.3929133208943956
 20
0.060704738743568
 10
0.3980988192384478
 20
0.060704738743568
 10
0.3981685708942937
 20
0.060948644743565
 10
0.3981685708942937
 20
0.0614701099994983
 10
0.3980528663184763
 20
0.0617462006714309
 10
0.3971012504064228
 20
0.0620619693194362
 10
0.3963599056464408
 20
0.0624547383194969
 10
0.3958863189742603
 20
0.0628908775034578
 10
0.3955820019743168
 20
0.0633801936554681
 10
0.3954245783184413
 20
0.0640649725034859
 10
0.3954073403184246
 20
0.0676462816634658
 10
0.3954073403184246
 20
0.0827183314874658
 10
0.3954073403184246
 20
0.0948939729914127
 10
0.3980010449902753
 20
0.095458156663546
 10
0.4049595323184958
 20
0.095458156663546
 10
0.4089659339902472
 20
0.095458156663546
 10
0.4089659339902472
 20
0.0894991969034598
 10
0.4089659339902472
 20
0.0791494243275688
 10
0.4089622779741778
 20
0.0751335100874657
 10
0.4088553324865183
 20
0.0744655461675468
 10
0.4086003089902635
 20
0.0738651059114801
 10
0.4081717698144809
 20
0.0733821701595607
 10
0.4075147305743015
 20
0.0730397807355558
 10
0.4066509744863449
 20
0.0727951225033907
 10
0.4063189615584549
 20
0.0725602267515608
 10
0.4063189615584549
 20
0.0719378051595507
 10
0.4063189615584549
 20
0.0715078850715107
 10
0.4098164815584902
 20
0.0715021021514817
 10
0.4172940975743132
 20
0.0715021021514817
 10
0.4207916175743494
 20
0.0715078850715107
 10
0.4207916175743494
 20
0.0719378051595507
 10
0.4207916175743494
 20
0.0725602267515608
 10
0.420463531478216
 20
0.0727951225033907
 10
0.4195937862383197
 20
0.0730397807355558
 10
0.4189497121582982
 20
0.0733821701595607
 10
0.4185483559823578
 20
0.0738651059114801
 10
0.4182933324864547
 20
0.0744655461675468
 10
0.4181863873102243
 20
0.0751335100874657
 10
0.418182730982367
 20
0.0791494243275688
 10
0.418182730982367
 20
0.0894991969034598
 10
0.418182730982367
 20
0.095458156663546
  0
LWPOLYLINE
  5
3E5
330
1F
100
AcDbEntity
  8
SSB-BLUE
370
     0
100
AcDbPolyline
 90
        2
 70
     1
 43
0.0
 10
0.4265997231502201
 20
0.1424942894955548
 10
0.4265997231502201
 20
0.1424942894955548
  0
LWPOLYLINE
  5
3E6
330
1F
100
AcDbEntity
  8
SSB-BLUE
370
     0
100
AcDbPolyline
 90
      100
 70
     1
 43
0.0
 10
0.4213510048704121
 20
0.1400425073835612
 10
0.4098038246543379
 20
0.1346485864875717
 10
0.3982566444382627
 20
0.1292546655914037
 10
0.3930079261584538
 20
0.1268028831674499
 10
0.3920045999902326
 20
0.1263440665754967
 10
0.3911369545104746
 20
0.1260030786554918
 10
0.390404990654174
 20
0.1257906303674927
 10
0.3898087074863463
 20
0.1257174339194007
 10
0.3889226143823103
 20
0.1259045908634917
 10
0.3882043373424126
 20
0.1264577294234117
 10
0.3876503061503902
 20
0.1273643533754409
 10
0.3872569496542653
 20
0.1286119652474715
 10
0.3870605690542836
 20
0.1286119652474715
 10
0.3866285317343223
 20
0.1286119652474715
 10
0.3861964944143619
 20
0.1286119652474715
 10
0.3860001138143802
 20
0.1286119652474715
 10
0.3860001138143802
 20
0.1254609490154879
 10
0.3860001138143802
 20
0.1185287133675548
 10
0.3860001138143802
 20
0.1115964777194467
 10
0.3860001138143802
 20
0.1084454614874657
 10
0.3861964944143619
 20
0.1084454614874657
 10
0.3866285317343223
 20
0.1084454614874657
 10
0.3870605690542836
 20
0.1084454614874657
 10
0.3872569496542653
 20
0.1084454614874657
 10
0.3874455942144763
 20
0.1093324472234247
 10
0.3876806556382979
 20
0.1100712547995304
 10
0.387979987502395
 20
0.1106922340154668
 10
0.3883614418223997
 20
0.1112257346714589
 10
0.3889937279182964
 20
0.111580410031431
 10
0.3899777138303131
 20
0.1121207544074068
 10
0.3913151848222966
 20
0.1128324853754012
 10
0.3930079261584538
 20
0.1137013208235507
 10
0.3996908182701837
 20
0.1168731652394657
 10
0.4143931802304897
 20
0.1238512230794813
 10
0.4290955421904439
 20
0.1308292809194897
 10
0.4357784339903903
 20
0.1340011253354048
 10
0.4370147392942459
 20
0.1345789605675307
 10
0.4380136026142738
 20
0.1349961204794798
 10
0.4387803797423749
 20
0.1352490348555158
 10
0.4393204261583135
 20
0.1353341331674152
 10
0.4402541267182727
 20
0.1351633415594229
 10
0.4409914466782539
 20
0.1346533469834856
 10
0.441521674454453
 20
0.1338077202794539
 10
0.4418340981502214
 20
0.132630031663405
 10
0.4420364298382627
 20
0.132630031663405
 10
0.4424815589902487
 20
0.132630031663405
 10
0.4429266884543699
 20
0.132630031663405
 10
0.4431290201424148
 20
0.132630031663405
 10
0.4431290201424148
 20
0.1358018760794977
 10
0.4431290201424148
 20
0.1427799339195053
 10
0.4431290201424148
 20
0.1497579917595182
 10
0.4431290201424148
 20
0.1529298364875702
 10
0.4429266884543699
 20
0.1529298364875702
 10
0.4424815589902487
 20
0.1529298364875702
 10
0.4420364298382627
 20
0.1529298364875702
 10
0.4418340981502214
 20
0.1529298364875702
 10
0.4415204841742702
 20
0.1517339975835377
 10
0.4409819253742829
 20
0.1509041406074791
 10
0.4402219919665189
 20
0.1504206276554587
 10
0.4392442544783278
 20
0.1502638208235529
 10
0.4387321769902881
 20
0.1503444559754747
 10
0.4379897988863073
 20
0.1505804100313961
 10
0.4370081932225176
 20
0.1509627572954617
 10
0.4357784339903903
 20
0.1514825708234468
 10
0.4290955421904439
 20
0.1546960716074057
 10
0.4143931802304897
 20
0.1617657738315721
 10
0.3996908182701837
 20
0.1688354760555635
 10
0.3930079261584538
 20
0.1720489771514808
 10
0.3913151848222966
 20
0.1728669319514227
 10
0.3899777138303131
 20
0.1735509910154978
 10
0.3889937279182964
 20
0.1741029396075531
 10
0.3883614418223997
 20
0.1745245629914383
 10
0.387979987502395
 20
0.1749717750555311
 10
0.3876806556382979
 20
0.175531459999493
 10
0.3874455942144763
 20
0.1762303964714027
 10
0.3872569496542653
 20
0.177095363743426
 10
0.3870605690542836
 20
0.177095363743426
 10
0.3866285317343223
 20
0.177095363743426
 10
0.3861964944143619
 20
0.177095363743426
 10
0.3860001138143802
 20
0.177095363743426
 10
0.3860001138143802
 20
0.1738312799595079
 10
0.3860001138143802
 20
0.166650295447436
 10
0.3860001138143802
 20
0.1594693109355365
 10
0.3860001138143802
 20
0.156205227151446
 10
0.3861964944143619
 20
0.156205227151446
 10
0.3866285317343223
 20
0.156205227151446
 10
0.3870605690542836
 20
0.156205227151446
 10
0.3872569496542653
 20
0.156205227151446
 10
0.3876503061503902
 20
0.1574400445275721
 10
0.3882043373424126
 20
0.1582999536554208
 10
0.3889226143823103
 20
0.1588028068634664
 10
0.3898087074863463
 20
0.1589664574155307
 10
0.390404990654174
 20
0.1589197425915287
 10
0.3911369545104746
 20
0.1587641260394497
 10
0.3920045999902326
 20
0.1584763987033932
 10
0.3930079261584538
 20
0.1580333521515529
 10
0.3982566444382627
 20
0.1556053734555629
 10
0.4098038246543379
 20
0.1502638208235529
 10
0.4213510048704121
 20
0.1449222678794078
 10
0.4265997231502201
 20
0.1424942894955548
  0
LWPOLYLINE
  5
3E7
330
1F
100
AcDbEntity
  8
SSB-BLUE
370
     0
100
AcDbPolyline
 90
        2
 70
     1
 43
0.0
 10
0.4028721839902483
 20
0.2804986839195447
 10
0.4028721839902483
 20
0.2804986839195447
  0
LWPOLYLINE
  5
3E8
330
1F
100
AcDbEntity
  8
SSB-BLUE
370
     0
100
AcDbPolyline
 90
      100
 70
     1
 43
0.0
 10
0.4159530067583717
 20
0.2856149734875064
 10
0.4341683579904299
 20
0.2927395262474377
 10
0.4372256818702427
 20
0.2940044163674527
 10
0.4385853251422036
 20
0.2944575093194617
 10
0.4396241522302633
 20
0.2944664468714357
 10
0.4409373315262659
 20
0.2935302918074303
 10
0.4418344840943247
 20
0.2915436059114169
 10
0.4423655754863276
 20
0.2915436059114169
 10
0.4430690574862642
 20
0.2915436059114169
 10
0.4431290201424148
 20
0.2954635629914968
 10
0.4431290201424148
 20
0.3064370107755083
 10
0.4430401781423461
 20
0.3096915551593948
 10
0.4423086326783788
 20
0.3096915551593948
 10
0.4418083659502905
 20
0.3095829192554502
 10
0.4409538559824533
 20
0.3077626831754481
 10
0.4394740081583049
 20
0.3069522828314977
 10
0.4383377462784584
 20
0.3070369864634888
 10
0.4366785717745199
 20
0.3076230921914771
 10
0.4319719057582177
 20
0.3094446708075367
 10
0.4079360903183167
 20
0.3186457114874397
 10
0.3929307694943134
 20
0.3243867183435007
 10
0.3906492988223906
 20
0.3253605614474457
 10
0.3891127400063947
 20
0.3262435616954891
 10
0.388166627150385
 20
0.327163282159491
 10
0.3875223611902658
 20
0.3284042474955111
 10
0.3871494450622048
 20
0.3292677271514117
 10
0.3864244996465258
 20
0.3292677271514117
 10
0.3860001138143802
 20
0.3291762671593972
 10
0.3860001138143802
 20
0.3203595115754316
 10
0.3860001138143802
 20
0.3102396879915465
 10
0.3863203883661956
 20
0.3096915551593948
 10
0.3870745173264733
 20
0.3096915551593948
 10
0.3875485860385197
 20
0.3105739351515417
 10
0.3885799263745149
 20
0.3119246677035621
 10
0.3899810082384452
 20
0.3123177708554214
 10
0.3909693378142132
 20
0.3121615346715467
 10
0.3922728713182826
 20
0.3117517835114238
 10
0.4006991698223912
 20
0.3086309208313978
 10
0.4187659560142479
 20
0.3019412040314471
 10
0.4196644261582776
 20
0.2991790745835407
 10
0.4018136160384627
 20
0.2920856675355337
 10
0.3921613150943619
 20
0.2882357513355407
 10
0.3908023725742247
 20
0.2876977347915659
 10
0.3899840514863992
 20
0.2875106255833977
 10
0.3886362841822652
 20
0.2878432309994432
 10
0.3875955011664613
 20
0.2891838803354432
 10
0.3871139494462392
 20
0.2902677271514466
 10
0.3863714936545142
 20
0.2902677271514466
 10
0.3860001138143802
 20
0.2899800431834967
 10
0.3860001138143802
 20
0.2800035667514447
 10
0.3860001138143802
 20
0.2700270906315278
 10
0.3863714936545142
 20
0.2697394066634047
 10
0.3871139494462392
 20
0.2697394066634047
 10
0.3876748190543733
 20
0.2708179663274937
 10
0.3888655236862899
 20
0.2721730313114197
 10
0.3902777483183586
 20
0.2725146198314547
 10
0.3910854791903793
 20
0.2723268073754177
 10
0.3923765794943383
 20
0.2719078734314673
 10
0.4019451280945301
 20
0.2682637143675048
 10
0.4196842309823952
 20
0.2614942581675228
 10
0.4188376002624397
 20
0.2587844448795078
 10
0.4010893723103166
 20
0.2520719739195307
 10
0.3927257152941896
 20
0.2489118706875208
 10
0.3910997294782836
 20
0.2484093391514097
 10
0.3899173951822341
 20
0.248222856127466
 10
0.3885283927103948
 20
0.2486519113515007
 10
0.3875413816463053
 20
0.2501901708795629
 10
0.3870745173264733
 20
0.2512296409995267
 10
0.3863203883661956
 20
0.2512296409995267
 10
0.3860001138143802
 20
0.250685240623528
 10
0.3860001138143802
 20
0.2406343262955257
 10
0.3860001138143802
 20
0.2318776069994257
 10
0.3864244996465258
 20
0.2317867700714986
 10
0.3871494450622048
 20
0.2317867700714986
 10
0.3875919871103086
 20
0.2327005347674858
 10
0.3882581211504297
 20
0.2339329422555254
 10
0.3890891381423547
 20
0.2347416765195378
 10
0.3905772093503694
 20
0.2355923610554358
 10
0.3929208946944609
 20
0.2365740284955278
 10
0.4079360903183167
 20
0.2423806021514627
 10
0.4319719057582177
 20
0.2516904019754227
 10
0.4366790909422083
 20
0.2534862555675517
 10
0.4384639895902734
 20
0.2540279234474738
 10
0.4397163931584239
 20
0.2540988248235729
 10
0.4410509035822905
 20
0.2532131828715185
 10
0.4418128921342399
 20
0.2511983417835211
 10
0.4423086326783788
 20
0.2510772973274218
 10
0.4430401781423461
 20
0.2510772973274218
 10
0.4431290201424148
 20
0.2543898974234757
 10
0.4431290201424148
 20
0.2655590943195527
 10
0.4430690574862642
 20
0.2695489771514818
 10
0.4423655754863276
 20
0.2695489771514818
 10
0.4418344840943247
 20
0.2695489771514818
 10
0.4410942341423301
 20
0.2676372966794798
 10
0.4396749776544207
 20
0.2667546165435652
 10
0.4384332079823228
 20
0.266786290159513
 10
0.4367940314304457
 20
0.2673366622154987
 10
0.4334833036464181
 20
0.2686905079034814
 10
0.4156666753104839
 20
0.2755632354795248
 10
0.4028721839902483
 20
0.2804986839195447
  0
LWPOLYLINE
  5
3E9
330
1F
100
AcDbEntity
  8
SSB-BLUE
370
     0
100
AcDbPolyline
 90
        2
 70
     1
 43
0.0
 10
0.4103370279742107
 20
0.443563625335508
 10
0.4103370279742107
 20
0.443563625335508
  0
LWPOLYLINE
  5
3EA
330
1F
100
AcDbEntity
  8
SSB-BLUE
370
     0
100
AcDbPolyline
 90
        2
 70
     1
 43
0.0
 10
0.4199727701424854
 20
0.443563625335508
 10
0.4199727701424854
 20
0.443563625335508
  0
LWPOLYLINE
  5
3EB
330
1F
100
AcDbEntity
  8
SSB-BLUE
370
     0
100
AcDbPolyline
 90
        2
 70
     1
 43
0.0
 10
0.423095816822471
 20
0.4727374536554568
 10
0.423095816822471
 20
0.4727374536554568
  0
LWPOLYLINE
  5
3EC
330
1F
100
AcDbEntity
  8
SSB-BLUE
370
     0
100
AcDbPolyline
 90
      100
 70
     1
 43
0.0
 10
0.4258833174864645
 20
0.4708994454314786
 10
0.4313411968223129
 20
0.4673006561594138
 10
0.4351125211582705
 20
0.4648139390954862
 10
0.4353966461425057
 20
0.4648533475035377
 10
0.4357320598702597
 20
0.4653032926874517
 10
0.4360224548063077
 20
0.4656928471515629
 10
0.4357063239264419
 20
0.4661448399915367
 10
0.4352498903905433
 20
0.4668040532474898
 10
0.4350205267103391
 20
0.467375864383409
 10
0.4349971201585064
 20
0.4678794589035587
 10
0.4353003741744113
 20
0.4687973385675211
 10
0.4360045148062639
 20
0.4702645563195507
 10
0.4372689737424747
 20
0.4724637663195397
 10
0.4395773107343955
 20
0.4768240979834833
 10
0.4413443249182559
 20
0.4806762671355563
 10
0.4425870358942579
 20
0.4840475048234821
 10
0.4433990776703754
 20
0.4873009288155466
 10
0.4439393524703057
 20
0.4909038586394159
 10
0.4441952408302141
 20
0.4949033922555408
 10
0.4439481723985299
 20
0.5017488831675028
 10
0.4424936221582279
 20
0.5091969218954118
 10
0.4397935903824842
 20
0.5157131826075254
 10
0.4366587962783087
 20
0.5203657244235407
 10
0.4340009263104099
 20
0.5231624537355231
 10
0.4309662165023021
 20
0.5255766336075532
 10
0.4274642629823307
 20
0.5276157414314424
 10
0.4233001946062256
 20
0.5292900476235376
 10
0.4188547047263809
 20
0.5303210254155389
 10
0.4141311966383459
 20
0.5306848476795408
 10
0.4078348197984463
 20
0.5301247730474037
 10
0.402050212814503
 20
0.5283681219435552
 10
0.3968207636545147
 20
0.5254146316634661
 10
0.3907610294544517
 20
0.5196972578714734
 10
0.3862493706145429
 20
0.5116674027915087
 10
0.3840022636224232
 20
0.5018260382714779
 10
0.3837771734063606
 20
0.4942249813275748
 10
0.3840948000142239
 20
0.4902802948154612
 10
0.3846953853501764
 20
0.4867683367034488
 10
0.3855481687103292
 20
0.4836256237275159
 10
0.3868584183264536
 20
0.4801636021514497
 10
0.3887308529424231
 20
0.4762052762474278
 10
0.3910518393503679
 20
0.4718764855994211
 10
0.3921183012145226
 20
0.4699931509514768
 10
0.3928006767263472
 20
0.4686106221674909
 10
0.3930785423665197
 20
0.4677867649514714
 10
0.3930014789903193
 20
0.4672898306953988
 10
0.3927004386144102
 20
0.4667034619514619
 10
0.3922016451502799
 20
0.4660307893273937
 10
0.3920272043902528
 20
0.4656496223595088
 10
0.3923128578624997
 20
0.4652250025275278
 10
0.3925985113343886
 20
0.4648003823834097
 10
0.3931495329745296
 20
0.4650207086714478
 10
0.3974875759824119
 20
0.4678811059515562
 10
0.4028094429743954
 20
0.4713902120714382
 10
0.4048465780223252
 20
0.4727457372554662
 10
0.4046050663104053
 20
0.4730750716634873
 10
0.4042282785742799
 20
0.4735888729515603
 10
0.4040157541583458
 20
0.4738786788315581
 10
0.403677520886328
 20
0.4738555771034428
 10
0.4033209888145226
 20
0.4738443831674557
 10
0.4029952012224829
 20
0.4738419735915081
 10
0.4023836157022363
 20
0.4738878085754159
 10
0.4016555908464943
 20
0.4741213864394931
 10
0.4009624831582342
 20
0.4745772031514264
 10
0.4002720355823657
 20
0.4752520251435009
 10
0.3995225991024727
 20
0.4762613713515487
 10
0.3987268262541956
 20
0.4776005620875408
 10
0.3974149323984326
 20
0.4799754976635234
 10
0.3953606033425156
 20
0.4847956748954259
 10
0.3941753555903506
 20
0.4897628768235727
 10
0.3938082108383334
 20
0.4949126077995585
 10
0.3943022509823653
 20
0.5007126631515062
 10
0.395736193934245
 20
0.5057383962794404
 10
0.3981270592945298
 20
0.5099523653115164
 10
0.4018605264864537
 20
0.5137824897915398
 10
0.4064113110622483
 20
0.5163572448314211
 10
0.4116512115984472
 20
0.517565187463533
 10
0.4173649711824963
 20
0.5174604075674614
 10
0.4224766384702177
 20
0.5160359250794891
 10
0.4268625160705338
 20
0.5132352973274097
 10
0.4303524788064
 20
0.5093291509274147
 10
0.4326275422461921
 20
0.5049817198394946
 10
0.4339589694864579
 20
0.4998285634155284
 10
0.4343238765744451
 20
0.4940447673195587
 10
0.4337851851744379
 20
0.4889516297114938
 10
0.4324334114783231
 20
0.4840083715994617
 10
0.430326421502433
 20
0.479211589375411
 10
0.4292088449904084
 20
0.4773659224874507
 10
0.4283859765024332
 20
0.4760739463994215
 10
0.4276382123422354
 20
0.4751260891514502
 10
0.4269418757662154
 20
0.4744875234315274
 10
0.4262438846542409
 20
0.4740693938234762
 10
0.4254887969184527
 20
0.4738691107275477
 10
0.4249216436304426
 20
0.4738420503435466
 10
0.4246285427182102
 20
0.4738454161994908
 10
0.4242816386542377
 20
0.4738586646555661
 10
0.4239595176863729
 20
0.4738640195114048
 10
0.4236884536462729
 20
0.4735104579915337
 10
0.4232961685583803
 20
0.4729987817354769
 10
0.423095816822471
 20
0.4727374536554568
  0
LWPOLYLINE
  5
3ED
330
1F
100
AcDbEntity
  8
SSB-BLUE
370
     0
100
AcDbPolyline
 90
        2
 70
     1
 43
0.0
 10
0.4387491373104054
 20
0.5523751488314313
 10
0.4387491373104054
 20
0.5523751488314313
  0
LWPOLYLINE
  5
3EE
330
1F
100
AcDbEntity
  8
SSB-BLUE
370
     0
100
AcDbPolyline
 90
      100
 70
     1
 43
0.0
 10
0.4354306273103159
 20
0.5523751488314313
 10
0.4270600573102997
 20
0.5523751488314313
 10
0.4160148673103859
 20
0.5523751488314313
 10
0.4046724973102452
 20
0.5523751488314313
 10
0.3954103873102657
 20
0.5523751488314313
 10
0.3906059773104706
 20
0.5523751488314313
 10
0.3901077523102883
 20
0.5523841653195288
 10
0.3897532909824992
 20
0.5524239986714479
 10
0.3894128696544952
 20
0.5524951883355529
 10
0.3890911683264502
 20
0.5525972659995082
 10
0.3887928673103023
 20
0.552729763663475
 10
0.3885226459823014
 20
0.5528922133274375
 10
0.3882835663102027
 20
0.5530793156715728
 10
0.3880677889824708
 20
0.5533150563194083
 10
0.3878711996543549
 20
0.5536088286555608
 10
0.3876909903264636
 20
0.5539564209914927
 10
0.3875243533104822
 20
0.5543536213274028
 10
0.3873684799823884
 20
0.5547962176634958
 10
0.3872510778142892
 20
0.5551554223275624
 10
0.3871262388143082
 20
0.5551554223275624
 10
0.3868855698144848
 20
0.5551554223275624
 10
0.3865908468145243
 20
0.5551554223275624
 10
0.3863038458144814
 20
0.5551554223275624
 10
0.3860863428144148
 20
0.5551554223275624
 10
0.3860001138143802
 20
0.5551554223275624
 10
0.3860001138143802
 20
0.5539286186714616
 10
0.3860001138143802
 20
0.550834144327415
 10
0.3860001138143802
 20
0.5467509026715467
 10
0.3860001138143802
 20
0.5425577983274828
 10
0.3860001138143802
 20
0.5391337346715197
 10
0.3860001138143802
 20
0.5373576163274567
 10
0.3860500653264172
 20
0.5372740745834497
 10
0.3862405413264147
 20
0.5372740745834497
 10
0.3865159593262248
 20
0.5372740745834497
 10
0.3868145433265004
 20
0.5372740745834497
 10
0.3870745173264733
 20
0.5372740745834497
 10
0.3872341053264439
 20
0.5372740745834497
 10
0.3873301916543719
 20
0.5375153285834733
 10
0.3874794836543334
 20
0.5379635262554619
 10
0.3876371996542351
 20
0.5383636372394883
 10
0.3878089556542834
 20
0.5387128529115231
 10
0.3880003676543122
 20
0.5390083655834328
 10
0.3882170516545251
 20
0.5392473672554737
 10
0.3884600266462259
 20
0.5394366673274558
 10
0.3887224966464053
 20
0.5396041723274099
 10
0.3890142166462027
 20
0.5397307273275116
 10
0.3893305066465098
 20
0.5398210123275718
 10
0.3896666866464606
 20
0.5398797073274011
 10
0.3900180766462373
 20
0.5399114923275228
 10
0.3903799966463897
 20
0.5399210473275629
 10
0.3936985066464755
 20
0.5399210473275629
 10
0.4020690766464936
 20
0.5399210473275629
 10
0.4131142666464092
 20
0.5399210473275629
 10
0.4244566366461929
 20
0.5399210473275629
 10
0.4337187466465267
 20
0.5399210473275629
 10
0.4385231566463235
 20
0.5399210473275629
 10
0.4390533008062727
 20
0.5399157823275536
 10
0.4394264331502474
 20
0.5398899936555477
 10
0.4397668058062676
 20
0.5398384646715586
 10
0.4400790981502177
 20
0.5397565159995184
 10
0.4403679908061902
 20
0.5396394673274765
 10
0.4406381631504237
 20
0.5394826386554472
 10
0.4408829418143423
 20
0.5392966133355559
 10
0.4410933761425353
 20
0.5390635203195285
 10
0.4412801761584629
 20
0.5387699379915301
 10
0.4414470864861784
 20
0.5384242906634614
 10
0.4415978508143877
 20
0.5380350023354464
 10
0.4417362131425131
 20
0.5376104973193883
 10
0.4418401481422283
 20
0.5372740745834497
 10
0.4419687701422843
 20
0.5372740745834497
 10
0.4422167321423079
 20
0.5372740745834497
 10
0.4425203861425242
 20
0.5372740745834497
 10
0.4428160841424607
 20
0.5372740745834497
 10
0.4430401781423461
 20
0.5372740745834497
 10
0.4431290201424148
 20
0.5372740745834497
 10
0.4431290201424148
 20
0.5385008782395531
 10
0.4431290201424148
 20
0.5415953525834248
 10
0.4431290201424148
 20
0.545678594239468
 10
0.4431290201424148
 20
0.5498716985835337
 10
0.4431290201424148
 20
0.5532957622394959
 10
0.4431290201424148
 20
0.555071880583558
 10
0.443077554806493
 20
0.5551554223275624
 10
0.4428813068065303
 20
0.5551554223275624
 10
0.4425975428063067
 20
0.5551554223275624
 10
0.442289910806303
 20
0.5551554223275624
 10
0.4420220588062867
 20
0.5551554223275624
 10
0.441857634806385
 20
0.5551554223275624
 10
0.4417679201423939
 20
0.5549134663275197
 10
0.4416224011583303
 20
0.5544601789995447
 10
0.4414593324864926
 20
0.554051234671543
 10
0.4412787138143904
 20
0.5536908456554484
 10
0.4410805451423787
 20
0.5533832233274838
 10
0.4408648261583128
 20
0.5531325799994047
 10
0.4406359376544798
 20
0.5529374508314558
 10
0.4403981059823057
 20
0.5527675864875184
 10
0.440133364310241
 20
0.5526275568314336
 10
0.4398389043264084
 20
0.552517830487493
 10
0.4395119186542705
 20
0.5524388748314398
 10
0.4391495989823034
 20
0.5523911584875636
 10
0.4387491373104054
 20
0.5523751488314313
  0
LWPOLYLINE
  5
3EF
330
1F
100
AcDbEntity
  8
SSB-BLUE
370
     0
100
AcDbPolyline
 90
        2
 70
     1
 43
0.0
 10
0.4431290201424148
 20
0.6048575708234108
 10
0.4431290201424148
 20
0.6048575708234108
  0
LWPOLYLINE
  5
3F0
330
1F
100
AcDbEntity
  8
SSB-BLUE
370
     0
100
AcDbPolyline
 90
      100
 70
     1
 43
0.0
 10
0.4314811946544524
 20
0.611272315159523
 10
0.4112507611582146
 20
0.622413713167501
 10
0.4043469446542805
 20
0.6265665551593909
 10
0.4180912273102884
 20
0.6265665551593909
 10
0.4351050746543477
 20
0.6265665551593909
 10
0.4391495989823034
 20
0.6265491611594305
 10
0.4399154591423127
 20
0.6263865383355265
 10
0.4405202099903356
 20
0.6260616221595648
 10
0.4410282608062515
 20
0.6256096218314556
 10
0.4414593324864926
 20
0.6249346488315278
 10
0.4418015574863601
 20
0.6239546349914989
 10
0.4421470341501719
 20
0.6238243675034312
 10
0.4428160841424607
 20
0.6238243675034312
 10
0.4431290201424148
 20
0.6239049733274511
 10
0.4431290201424148
 20
0.629897398831548
 10
0.4431290201424148
 20
0.6385729999994379
 10
0.443077554806493
 20
0.6410772973274215
 10
0.4425203861425242
 20
0.6410772973274215
 10
0.44192294015029
 20
0.6410772973274215
 10
0.4416604261584336
 20
0.6404712738315208
 10
0.4412787138143904
 20
0.6396020224874351
 10
0.4408081544781917
 20
0.6390040501515184
 10
0.4402692743184087
 20
0.6386073955035459
 10
0.4395968681422149
 20
0.6383728398314874
 10
0.4387491373104054
 20
0.6382970238314663
 10
0.4244566366461929
 20
0.6382970238314663
 10
0.3996328196541876
 20
0.6382970238314663
 10
0.3901980129745333
 20
0.6383006995035779
 10
0.3894128696544952
 20
0.6384108698235007
 10
0.3887224966464053
 20
0.6386821488314914
 10
0.3881731036464222
 20
0.6391143078314068
 10
0.3877346606543153
 20
0.6397711823354833
 10
0.3873684799823884
 20
0.6407028901514842
 10
0.3870745173264733
 20
0.6410772973274215
 10
0.3864425201425003
 20
0.6410772973274215
 10
0.3860059856543563
 20
0.6410772973274215
 10
0.3860001138143802
 20
0.6355871113275465
 10
0.3860001138143802
 20
0.6238492217355667
 10
0.3860059856543563
 20
0.6183590357355131
 10
0.3864425201425003
 20
0.6183590357355131
 10
0.3870745173264733
 20
0.6183590357355131
 10
0.387410841158462
 20
0.6188404539194803
 10
0.3880896973102601
 20
0.6198997060875469
 10
0.3891357868224148
 20
0.6204021845835151
 10
0.3900379847424649
 20
0.6204252738314074
 10
0.3906515218222903
 20
0.6202476129194148
 10
0.3913924060703913
 20
0.6199437895035027
 10
0.3972406828942256
 20
0.6167815843274474
 10
0.4124281677263753
 20
0.6085134941594266
 10
0.4211724772224699
 20
0.6037530786554548
 10
0.4125969765742337
 20
0.5988970045754308
 10
0.3977026865665278
 20
0.5904627706634918
 10
0.3918316852225247
 20
0.5871607002554926
 10
0.3906203071582439
 20
0.5866053415034989
 10
0.3897305552303072
 20
0.5863147465754777
 10
0.3887921141422508
 20
0.5863333508234448
 10
0.3878490866544597
 20
0.5868957186554518
 10
0.3873348938064458
 20
0.587979321487449
 10
0.3870745173264733
 20
0.5884425316635085
 10
0.3864425201425003
 20
0.5884425316635085
 10
0.3860059856543563
 20
0.5884425316635085
 10
0.3860001138143802
 20
0.5830950076634798
 10
0.3860001138143802
 20
0.5716621261514048
 10
0.3860059856543563
 20
0.5663146021515529
 10
0.3864425201425003
 20
0.5663146021515529
 10
0.3870745173264733
 20
0.5663146021515529
 10
0.3873684799823884
 20
0.566657134159402
 10
0.3877346606543153
 20
0.5675188831514078
 10
0.3881731036464222
 20
0.5681360066714359
 10
0.3887224966464053
 20
0.5686072230795674
 10
0.3894128696544952
 20
0.5688995293274078
 10
0.3901980129745333
 20
0.5689969647434685
 10
0.3996328196541876
 20
0.5689996607354777
 10
0.4244566366461929
 20
0.5689996607354777
 10
0.4387491373104054
 20
0.5689996607354777
 10
0.4395968681422149
 20
0.5689353946635399
 10
0.4402692743184087
 20
0.5686928427434097
 10
0.4408081544781917
 20
0.5682404611515084
 10
0.4412787138143904
 20
0.5676769744874921
 10
0.4416604261584336
 20
0.5668700473274458
 10
0.44192294015029
 20
0.5663146021515529
 10
0.4425203861425242
 20
0.5663146021515529
 10
0.443077554806493
 20
0.5663146021515529
 10
0.4431290201424148
 20
0.5689681621514158
 10
0.4431290201424148
 20
0.5781608521514841
 10
0.4431290201424148
 20
0.5845104421515464
 10
0.4428160841424607
 20
0.5845958521515531
 10
0.4421470341501719
 20
0.5845958521515531
 10
0.4418019134782849
 20
0.5844719903354508
 10
0.4414861451424184
 20
0.5835157346715532
 10
0.4410933761425353
 20
0.5828260196714528
 10
0.4405721189904597
 20
0.5823601113194786
 10
0.4399261694782659
 20
0.5820515823195623
 10
0.4391499109821977
 20
0.5819065313355134
 10
0.4351050746543477
 20
0.5818917503354051
 10
0.4180912273102884
 20
0.5818917503354051
 10
0.4043469446542805
 20
0.5818917503354051
 10
0.4112507611582146
 20
0.5862850201514736
 10
0.4314811946544524
 20
0.5980714463355579
 10
0.4431290201424148
 20
0.6048575708234108
  0
LWPOLYLINE
  5
3F1
330
1F
100
AcDbEntity
  8
SSB-BLUE
370
     0
100
AcDbPolyline
 90
        2
 70
     1
 43
0.0
 10
0.3223013832385098
 20
0.115834133167521
 10
0.3223013832385098
 20
0.115834133167521
  0
LWPOLYLINE
  5
3F2
330
1F
100
AcDbEntity
  8
SSB-BLUE
370
     0
100
AcDbPolyline
 90
      100
 70
     1
 43
0.0
 10
0.3223013832385098
 20
0.1102701223514249
 10
0.3223013832385098
 20
0.0972011665035453
 10
0.3223013832385098
 20
0.0820618813035141
 10
0.3223013832385098
 20
0.0702868814954378
 10
0.3222986841265358
 20
0.0667565512635182
 10
0.3222300151102342
 20
0.0660617456715498
 10
0.3220734700464316
 20
0.0654350643434727
 10
0.3218353978225332
 20
0.0648786235755017
 10
0.3215221473262853
 20
0.0643945393515324
 10
0.3211211761583854
 20
0.0639953066474428
 10
0.3205875803423357
 20
0.06364199160745
 10
0.3199292241504636
 20
0.0633147273195283
 10
0.3191503407984149
 20
0.0630209200394587
 10
0.3182551625664729
 20
0.0627679775835377
 10
0.3179786294785387
 20
0.0625874075834219
 10
0.3179786294785387
 20
0.0621359267354977
 10
0.3179786294785387
 20
0.0615419492474008
 10
0.3179786294785387
 20
0.0610192200795678
 10
0.3179786294785387
 20
0.0607814838794116
 10
0.3204502544785281
 20
0.0607809107355148
 10
0.3266877328945146
 20
0.0607809107355148
 10
0.3340571204784837
 20
0.0607809107355148
 10
0.3399172957341943
 20
0.0607809107355148
 10
0.3417442544783267
 20
0.0607898963355478
 10
0.3417442544783267
 20
0.0610814325674767
 10
0.3417442544783267
 20
0.0616274263274077
 10
0.3417442544783267
 20
0.0622141335914908
 10
0.3417442544783267
 20
0.0626278090875028
 10
0.3412881263902454
 20
0.0628013294475141
 10
0.3403495093344198
 20
0.0630605633834032
 10
0.3395731403902351
 20
0.0633596035273927
 10
0.3389420898144007
 20
0.0636910429994258
 10
0.3384394269264703
 20
0.0640474749194429
 10
0.3381030690862738
 20
0.0644591838794382
 10
0.3378632165902555
 20
0.0649537344555329
 10
0.3376873562303455
 20
0.0655203392474215
 10
0.3375776046143528
 20
0.0661568822715566
 10
0.3375360780383172
 20
0.0668612469194159
 10
0.3375357582385092
 20
0.073556316391481
 10
0.3375357582385092
 20
0.0915858831675118
 10
0.3375357582385092
 20
0.1133219687595579
 10
0.3375357582385092
 20
0.1309808839034137
 10
0.3375295606702151
 20
0.1369718286554207
 10
0.3371957709023183
 20
0.1369718286554207
 10
0.3365397016703806
 20
0.1369718286554207
 10
0.3358216551983864
 20
0.1369718286554207
 10
0.3353019349585162
 20
0.1369718286554207
 10
0.3350991614783929
 20
0.1366261569915412
 10
0.3348246180142729
 20
0.1358162779995347
 10
0.3345126869664732
 20
0.1351341820395557
 10
0.3341654846303204
 20
0.1345629390554528
 10
0.3337851269904233
 20
0.1340856189914188
 10
0.3332553659663979
 20
0.1337491485195628
 10
0.3326202531502442
 20
0.1335091412714462
 10
0.331942814726208
 20
0.1333280873595122
 10
0.3312124689023212
 20
0.1332112779915278
 10
0.3304186348223279
 20
0.1331640034395587
 10
0.3236797455743634
 20
0.1331632346714917
 10
0.3041675569822937
 20
0.1331632346714917
 10
0.2801503052304346
 20
0.1331632346714917
 10
0.2602285651582603
 20
0.1331632346714917
 10
0.2528219338222977
 20
0.1331635769355284
 10
0.2519730198863002
 20
0.1332074082554095
 10
0.2512344048143946
 20
0.1333210264875522
 10
0.2505986811022467
 20
0.1334991407354327
 10
0.2500584424944297
 20
0.1337364610394829
 10
0.2495987136143327
 20
0.1340649439994257
 10
0.2491842815183389
 20
0.1345382139914077
 10
0.2488090509742022
 20
0.1351046003834764
 10
0.248460853358293
 20
0.1357810335433971
 10
0.2481275200462463
 20
0.1365844438394577
 10
0.2478987822383072
 20
0.1369718286554207
 10
0.2474257175423542
 20
0.1369718286554207
 10
0.2467547799505239
 20
0.1369718286554207
 10
0.2461304008704319
 20
0.1369718286554207
 10
0.2457970107743463
 20
0.1369718286554207
 10
0.2457867347423379
 20
0.1350628909754628
 10
0.2457867347423379
 20
0.128939758999576
 10
0.2457867347423379
 20
0.1212396938474267
 10
0.2457867347423379
 20
0.1147223286554633
 10
0.2457873902542902
 20
0.1121397973274929
 10
0.2460592570704838
 20
0.1121397973274929
 10
0.2466570315985068
 20
0.1121397973274929
 10
0.2473362827425252
 20
0.1121397973274929
 10
0.2478525803424159
 20
0.1121397973274929
 10
0.2480646813742897
 20
0.112388924959566
 10
0.2483623880303378
 20
0.1131896096234008
 10
0.2487003292704593
 20
0.1138794409994057
 10
0.2490843248301928
 20
0.1144584197114984
 10
0.2495201947582704
 20
0.114926545447541
 10
0.2499886281263919
 20
0.1152742176554762
 10
0.2505158310623035
 20
0.1155220673354451
 10
0.2511374604863157
 20
0.1156921185673907
 10
0.2518609232784934
 20
0.1157928365354657
 10
0.2526936269424533
 20
0.1158326861115011
 10
0.2576696912305234
 20
0.115834133167521
 10
0.2743784524942576
 20
0.115834133167521
 10
0.2958611457262501
 20
0.115834133167521
 10
0.31440603447827
 20
0.115834133167521
 10
0.3223013832385098
 20
0.115834133167521
  0
LWPOLYLINE
  5
3F3
330
1F
100
AcDbEntity
  8
SSB-BLUE
370
     0
100
AcDbPolyline
 90
        2
 70
     1
 43
0.0
 10
0.2745606608062197
 20
0.3419122581675564
 10
0.2745606608062197
 20
0.3419122581675564
  0
LWPOLYLINE
  5
3F4
330
1F
100
AcDbEntity
  8
SSB-BLUE
370
     0
100
AcDbPolyline
 90
      100
 70
     1
 43
0.0
 10
0.2895093526942842
 20
0.3419122581675564
 10
0.3168293762302436
 20
0.3419122581675564
 10
0.3303790694782656
 20
0.3419118706634681
 10
0.3316369046542968
 20
0.3417917225835367
 10
0.3327441664465098
 20
0.3414755648714589
 10
0.3337090941503886
 20
0.3409751661674569
 10
0.3343184688384646
 20
0.3400986645675372
 10
0.3348385559905003
 20
0.338885618239412
 10
0.3352177579823463
 20
0.3376466331674859
 10
0.336017957486348
 20
0.3376466331674859
 10
0.3371430787823169
 20
0.3376466331674859
 10
0.3375357582385092
 20
0.3381364001595157
 10
0.3375357582385092
 20
0.3479136299594288
 10
0.3375357582385092
 20
0.3606811972395718
 10
0.3374701742782893
 20
0.364592433919471
 10
0.3365744094865199
 20
0.364592433919471
 10
0.3354836918063553
 20
0.364592433919471
 10
0.3350498483184836
 20
0.3640031598314684
 10
0.3345748866623772
 20
0.3625724707274447
 10
0.3340064108063014
 20
0.3615266682554434
 10
0.3332259262702344
 20
0.3608803643114893
 10
0.3321739833264736
 20
0.3604465501515213
 10
0.3309926003185142
 20
0.3602087453115583
 10
0.3249858945745103
 20
0.3601744652474688
 10
0.2915755533502207
 20
0.3601744652474688
 10
0.2581652118145037
 20
0.3601744652474688
 10
0.2521057038145313
 20
0.3602087453115583
 10
0.2509467982222304
 20
0.3604465501515213
 10
0.2500544336063992
 20
0.3608803643114893
 10
0.2493368775984708
 20
0.3615266682554434
 10
0.2487241501582407
 20
0.3625724707274447
 10
0.2481746903903979
 20
0.3640031598314684
 10
0.2477136754464944
 20
0.364592433919471
 10
0.2466894649342253
 20
0.364592433919471
 10
0.2458483197983599
 20
0.364592433919471
 10
0.2457867347423379
 20
0.3600620332394842
 10
0.2457867347423379
 20
0.3452733106155366
 10
0.2457867347423379
 20
0.3339483071594067
 10
0.2461554703824182
 20
0.3333810081674127
 10
0.2472119869342633
 20
0.3333810081674127
 10
0.2479633936942447
 20
0.3333810081674127
 10
0.2485398845181885
 20
0.3348080559195008
 10
0.2495156960304579
 20
0.3359098583355617
 10
0.2508201277824646
 20
0.3363280041675463
 10
0.2520321335904194
 20
0.3361681372394774
 10
0.2532584102782032
 20
0.335557348255568
 10
0.2545192927582143
 20
0.3344525727915197
 10
0.2672933268623563
 20
0.3221805445035555
 10
0.2930499393025272
 20
0.2974553167035463
 10
0.3071431802302769
 20
0.2839264182555263
 10
0.2925826331902597
 20
0.2839264182555263
 10
0.2659719781583396
 20
0.2839264182555263
 10
0.2527637754622898
 20
0.283926828847405
 10
0.2514545757264113
 20
0.2840543579114154
 10
0.2504457305905259
 20
0.2843911048155112
 10
0.2496618277822842
 20
0.2849309949195398
 10
0.2490014579422128
 20
0.2858296812794778
 10
0.2484286583903943
 20
0.2870168344154615
 10
0.2479633936942447
 20
0.2882682152475366
 10
0.2472119869342633
 20
0.2882682152475366
 10
0.2461554703824182
 20
0.2882682152475366
 10
0.2457867347423379
 20
0.2877791405834937
 10
0.2457867347423379
 20
0.2780157301994679
 10
0.2457867347423379
 20
0.2652662089994857
 10
0.2458483197983599
 20
0.2613605003355479
 10
0.2466894649342253
 20
0.2613605003355479
 10
0.2477136754464944
 20
0.2613605003355479
 10
0.2481746903903979
 20
0.2618936035034487
 10
0.2487241501582407
 20
0.2632155946154437
 10
0.2493368775984708
 20
0.2642026253353977
 10
0.2500544336063992
 20
0.264864564535543
 10
0.2509467982222304
 20
0.2653391171594031
 10
0.2521057038145313
 20
0.265575393823493
 10
0.2581652118145037
 20
0.2656070824155323
 10
0.2915755533502207
 20
0.2656070824155323
 10
0.3249858945745103
 20
0.2656070824155323
 10
0.3309926003185142
 20
0.265575393823493
 10
0.3321739833264736
 20
0.2653391171594031
 10
0.3332259262702344
 20
0.264864564535543
 10
0.3340064108063014
 20
0.2642026253353977
 10
0.3345748866623772
 20
0.2632155946154437
 10
0.3350498483184836
 20
0.2618936035034487
 10
0.3354836918063553
 20
0.2613605003355479
 10
0.3365744094865199
 20
0.2613605003355479
 10
0.3374701742782893
 20
0.2613605003355479
 10
0.3375357582385092
 20
0.265545385663561
 10
0.3375357582385092
 20
0.279206231407481
 10
0.3375357582385092
 20
0.2896675218314488
 10
0.3371430787823169
 20
0.2901915551595007
 10
0.336017957486348
 20
0.2901915551595007
 10
0.3352177579823463
 20
0.2901915551595007
 10
0.3347742818063306
 20
0.2888407683194867
 10
0.3338774861662559
 20
0.2877629243834887
 10
0.3324962138063903
 20
0.2873399434874519
 10
0.3313268365584463
 20
0.2876297234714729
 10
0.3297852164784834
 20
0.2886838856714213
 10
0.3277157966064692
 20
0.2905162753995078
 10
0.3147643178064303
 20
0.3030371704875083
 10
0.2887790271501833
 20
0.3281637516554507
 10
0.2745606608062197
 20
0.3419122581675564
  0
LWPOLYLINE
  5
3F5
330
1F
100
AcDbEntity
  8
SSB-BLUE
370
     0
100
AcDbPolyline
 90
        2
 70
     1
 43
0.0
 10
0.3043819496544087
 20
0.3985270044074047
 10
0.3043819496544087
 20
0.3985270044074047
  0
LWPOLYLINE
  5
3F6
330
1F
100
AcDbEntity
  8
SSB-BLUE
370
     0
100
AcDbPolyline
 90
      100
 70
     1
 43
0.0
 10
0.3043819496544087
 20
0.4061530874955386
 10
0.3043819496544087
 20
0.4183135982473907
 10
0.3044089273582156
 20
0.4217860574714214
 10
0.3046886653102403
 20
0.4231598237354986
 10
0.3053048528304147
 20
0.4241609921115206
 10
0.3061902273985293
 20
0.4249206525195115
 10
0.3075310764141896
 20
0.4255609629435338
 10
0.3087047037265158
 20
0.4260161166555623
 10
0.3087047037265158
 20
0.4270478448074267
 10
0.3087047037265158
 20
0.4280399495835248
 10
0.3043600853182937
 20
0.4281007346714567
 10
0.2925163778064696
 20
0.4281007346714567
 10
0.2873575358064322
 20
0.4280703118634408
 10
0.2873575358064322
 20
0.4271452615035108
 10
0.2873575358064322
 20
0.4260617185755216
 10
0.2884714341504786
 20
0.4256048981594561
 10
0.2898803540784502
 20
0.4249745467754558
 10
0.2907856208304622
 20
0.4242179074635129
 10
0.2913733252464317
 20
0.4232521379834156
 10
0.2916624653183382
 20
0.4219012581674289
 10
0.2916993324864858
 20
0.4170072080714187
 10
0.2916993324864858
 20
0.3942490719435652
 10
0.2916993324864858
 20
0.3778278729674707
 10
0.2923239262225046
 20
0.3777130394954131
 10
0.2934828255745199
 20
0.3777130394954131
 10
0.2939930123423346
 20
0.3783597518475181
 10
0.2946056240302273
 20
0.3798307869194328
 10
0.2953449258144607
 20
0.3808633596555211
 10
0.2962878787344749
 20
0.3815519074634057
 10
0.2975087709263793
 20
0.381891238351411
 10
0.2990970789984848
 20
0.3819596215755787
 10
0.3074763509904832
 20
0.3819596215755787
 10
0.3165396455424778
 20
0.3819596215755787
 10
0.3184864581503897
 20
0.3819089275034111
 10
0.319758528014491
 20
0.3816019921995597
 10
0.3207265413983702
 20
0.3809595261674197
 10
0.3214822057105167
 20
0.3800037269595462
 10
0.3221459373505047
 20
0.3785416887195128
 10
0.3225976415903373
 20
0.3777130394954131
 10
0.3234521880624284
 20
0.3777130394954131
 10
0.3240147739822898
 20
0.3777130394954131
 10
0.3333001454542233
 20
0.3973242587594177
 10
0.3382404863662476
 20
0.416907723439496
 10
0.3387453213981919
 20
0.4351259341514613
 10
0.3357802537342378
 20
0.4502016091034662
 10
0.3296070941183746
 20
0.4627347932475701
 10
0.3185295129022947
 20
0.4741147854554937
 10
0.3040011146542358
 20
0.4806444696555685
 10
0.2868585314302603
 20
0.4818459641834867
 10
0.2718256142061817
 20
0.4781766014475411
 10
0.2595298286785042
 20
0.4696846734315488
 10
0.2506203651024217
 20
0.4572995545035008
 10
0.2455619253265002
 20
0.4420375918394051
 10
0.2442203381183479
 20
0.4259130565034948
 10
0.2444846601502348
 20
0.4199583302715438
 10
0.2451791025742827
 20
0.4142425601594378
 10
0.2463740079743273
 20
0.4087441158314303
 10
0.2481873694464607
 20
0.402718335655532
 10
0.2505351607104078
 20
0.3961697417594907
 10
0.2516902836144155
 20
0.3930123129915062
 10
0.2523362134703886
 20
0.3906160671915462
 10
0.2523737957423489
 20
0.3891451032554798
 10
0.2518682855422414
 20
0.3879557888955407
 10
0.2509069339824217
 20
0.3865382933354917
 10
0.2510645127023592
 20
0.3858571508475057
 10
0.2516097376942259
 20
0.384840096367431
 10
0.2527885002143728
 20
0.3850348140074438
 10
0.2633669488224308
 20
0.3903033143355339
 10
0.2731470243741842
 20
0.3951741921914999
 10
0.273440933990301
 20
0.3958384417515086
 10
0.2729122231583103
 20
0.3969064377195082
 10
0.2723386089744508
 20
0.3973661619194786
 10
0.2708693429422704
 20
0.3975200384474071
 10
0.2697957880704243
 20
0.3978087729195252
 10
0.2689971382702803
 20
0.3982568323754894
 10
0.2680743829823386
 20
0.3991062542475063
 10
0.2669196310465223
 20
0.4005132307274213
 10
0.2647124981183948
 20
0.4043860524074434
 10
0.2627351104464113
 20
0.4093964781914057
 10
0.2611492309823742
 20
0.4153847544075387
 10
0.2601308542461984
 20
0.4212973085355137
 10
0.2597461888225263
 20
0.4269611743274498
 10
0.2608386646221881
 20
0.437173828831428
 10
0.264369302486366
 20
0.4462331996714557
 10
0.2706180734303247
 20
0.454065732223433
 10
0.2793184732943335
 20
0.4594952164394881
 10
0.2897911445422956
 20
0.4616790710474508
 10
0.3005071998143842
 20
0.4606585855035439
 10
0.3096043045585066
 20
0.4564793701514108
 10
0.3168281485104583
 20
0.449377862647518
 10
0.3212516405184651
 20
0.4405250055435018
 10
0.3232151897424478
 20
0.4298470464075468
 10
0.3232233788063228
 20
0.422154987799428
 10
0.3226393840705004
 20
0.4163076326234556
 10
0.3214500294624223
 20
0.4105400779995439
 10
0.3198453326544648
 20
0.4051905419114768
 10
0.3178749902542508
 20
0.4004200612875346
 10
0.3153263053105189
 20
0.3985270044074047
 10
0.3086000866944243
 20
0.3985270044074047
 10
0.3043819496544087
 20
0.3985270044074047
  0
LWPOLYLINE
  5
3F7
330
1F
100
AcDbEntity
  8
SSB-BLUE
370
     0
100
AcDbPolyline
 90
        2
 70
     1
 43
0.0
 10
0.3302994302302054
 20
0.5199259301593929
 10
0.3302994302302054
 20
0.5199259301593929
  0
LWPOLYLINE
  5
3F8
330
1F
100
AcDbEntity
  8
SSB-BLUE
370
     0
100
AcDbPolyline
 90
      100
 70
     1
 43
0.0
 10
0.3249858945745103
 20
0.5199259301593929
 10
0.311583096230188
 20
0.5199259301593929
 10
0.2938977465742356
 20
0.5199259301593929
 10
0.2757365582304452
 20
0.5199259301593929
 10
0.2609062425743902
 20
0.5199259301593929
 10
0.2532135122302153
 20
0.5199259301593929
 10
0.2523432968063917
 20
0.5199361309995246
 10
0.2517329393184253
 20
0.5199838573275759
 10
0.2511928404862642
 20
0.520074873655565
 10
0.2507155123103502
 20
0.5202138596715127
 10
0.2502934664782872
 20
0.5204054959995137
 10
0.2499192149905136
 20
0.5206544623274141
 10
0.2495779103904896
 20
0.520974895999494
 10
0.2492598263903547
 20
0.5213725009994868
 10
0.2489658443903586
 20
0.5218408909995027
 10
0.2486905823903189
 20
0.5223824059994433
 10
0.2484286583903943
 20
0.5229993859995688
 10
0.2481746903903979
 20
0.5236941709994359
 10
0.2479759217422703
 20
0.5242677271514067
 10
0.2477574537264093
 20
0.5242677271514067
 10
0.2473362827425252
 20
0.5242677271514067
 10
0.2468205177262552
 20
0.5242677271514067
 10
0.24631826574252
 20
0.5242677271514067
 10
0.2459376357262402
 20
0.5242677271514067
 10
0.2457867347423379
 20
0.5242677271514067
 10
0.2457867347423379
 20
0.522232200151537
 10
0.2457867347423379
 20
0.5170978111514773
 10
0.2457867347423379
 20
0.5103228481515601
 10
0.2457867347423379
 20
0.5033655991514037
 10
0.2457867347423379
 20
0.4976843521515111
 10
0.2457867347423379
 20
0.494737395151498
 10
0.2458741502783122
 20
0.4945987816635462
 10
0.2462074832782228
 20
0.4945987816635462
 10
0.2466894649342253
 20
0.4945987816635462
 10
0.2472119869342633
 20
0.4945987816635462
 10
0.2476669412784123
 20
0.4945987816635462
 10
0.2479462202781804
 20
0.4945987816635462
 10
0.2480914600223603
 20
0.4949914043355222
 10
0.2483175308544103
 20
0.4957182083355117
 10
0.2485664750304029
 20
0.4963647503354985
 10
0.2488408668622108
 20
0.4969282223355709
 10
0.2491432803502827
 20
0.4974058163354381
 10
0.2494762891822129
 20
0.4977947243355381
 10
0.2498322428062529
 20
0.4981067804953954
 10
0.2501957153184406
 20
0.4983887894955581
 10
0.2506051104862852
 20
0.4986111284955613
 10
0.2510679163104026
 20
0.4987775414955369
 10
0.2515916204782114
 20
0.498891772495437
 10
0.2521837109903302
 20
0.4989575654953989
 10
0.2528516761584543
 20
0.4989786644955557
 10
0.2581652118145037
 20
0.4989786644955557
 10
0.2715680101584708
 20
0.4989786644955557
 10
0.2892533598144187
 20
0.4989786644955557
 10
0.3074145481582127
 20
0.4989786644955557
 10
0.3222448638142659
 20
0.4989786644955557
 10
0.3299375941584453
 20
0.4989786644955557
 10
0.3307673023103783
 20
0.4989638566634112
 10
0.3313561533262801
 20
0.4988980443195406
 10
0.3319093196542973
 20
0.4987795816634498
 10
0.332431480982458
 20
0.4986084693194118
 10
0.3329273173102232
 20
0.4983847066634981
 10
0.3334015083263253
 20
0.4981082943194562
 10
0.333793536326235
 20
0.4977875046554488
 10
0.3340986919822537
 20
0.4974146743275396
 10
0.3343790433263178
 20
0.4969735159995273
 10
0.3346336549823183
 20
0.4964574776715205
 10
0.3348615903262972
 20
0.4958600076554332
 10
0.3350619139825097
 20
0.4951745533274679
 10
0.3352044162383398
 20
0.4945987816635462
 10
0.3354370708942138
 20
0.4945987816635462
 10
0.3358855902383127
 20
0.4945987816635462
 10
0.3364348468943898
 20
0.4945987816635462
 10
0.3369697122383526
 20
0.4945987816635462
 10
0.3373750588943034
 20
0.4945987816635462
 10
0.3375357582385092
 20
0.4945987816635462
 10
0.3375357582385092
 20
0.4966343086634213
 10
0.3375357582385092
 20
0.501768697663481
 10
0.3375357582385092
 20
0.5085436606633964
 10
0.3375357582385092
 20
0.5155009096635537
 10
0.3375357582385092
 20
0.5211821566634463
 10
0.3375357582385092
 20
0.5241291136634568
 10
0.3374426664861936
 20
0.5242677271514067
 10
0.3370876884864087
 20
0.5242677271514067
 10
0.3365744094865199
 20
0.5242677271514067
 10
0.336017957486348
 20
0.5242677271514067
 10
0.3355334604864133
 20
0.5242677271514067
 10
0.3352360464861777
 20
0.5242677271514067
 10
0.3350991614783929
 20
0.5238802986555556
 10
0.3348934558223489
 20
0.5231656966634937
 10
0.3346657544783742
 20
0.5225294846715407
 10
0.3344169928222262
 20
0.5219693229914038
 10
0.3341481074782147
 20
0.5214828709994315
 10
0.3338600338224484
 20
0.5210677893194618
 10
0.3335172225741836
 20
0.5207262101594976
 10
0.3330477115582466
 20
0.5204621801595018
 10
0.3325577252303367
 20
0.520256650159447
 10
0.3320425839024192
 20
0.5201049401595182
 10
0.3314976075743372
 20
0.5200023701595562
 10
0.3309181165584123
 20
0.519944260159571
 10
0.3302994302302054
 20
0.5199259301593929
  0
LWPOLYLINE
  5
3F9
330
1F
100
AcDbEntity
  8
SSB-BLUE
370
     0
100
AcDbPolyline
 90
        2
 70
     1
 43
0.0
 10
0.2535943522224713
 20
0.5371979029034684
 10
0.2535943522224713
 20
0.5371979029034684
  0
LWPOLYLINE
  5
3FA
330
1F
100
AcDbEntity
  8
SSB-BLUE
370
     0
100
AcDbPolyline
 90
      100
 70
     1
 43
0.0
 10
0.2627370195742973
 20
0.5426154799514898
 10
0.2744918775982752
 20
0.5495809361114024
 10
0.2747612115982232
 20
0.550581491719484
 10
0.2740359888144299
 20
0.5519851488315278
 10
0.2736406473744415
 20
0.5521567497675078
 10
0.2731992406942458
 20
0.5521116323834639
 10
0.2722399037183383
 20
0.5522100296955337
 10
0.2700518951422879
 20
0.5537291801593991
 10
0.2672088023184527
 20
0.5580296895674817
 10
0.2618244850943103
 20
0.5718489648554908
 10
0.2597661412222152
 20
0.5876233341675184
 10
0.2600273716463102
 20
0.5958028675035028
 10
0.2610130810464026
 20
0.6022079535674614
 10
0.2623905373344053
 20
0.6067323700874159
 10
0.2642246430624322
 20
0.6100339852874077
 10
0.2665723638142756
 20
0.6126264925034377
 10
0.2691554402064407
 20
0.6140551507994454
 10
0.2722934429182446
 20
0.6143091294075438
 10
0.2760280451662966
 20
0.6122326935914879
 10
0.2783882973982701
 20
0.6071808129914383
 10
0.2792534362704284
 20
0.6020428746795288
 10
0.2801729473821979
 20
0.5934563357834684
 10
0.2806989996624969
 20
0.5875722488475513
 10
0.2813774339902206
 20
0.5799457114874658
 10
0.2820338358143273
 20
0.5734444083675108
 10
0.2832737328624342
 20
0.5653686234555409
 10
0.2847947687422954
 20
0.5589042592635041
 10
0.2867816761582693
 20
0.5532680357354467
 10
0.2894451593185376
 20
0.5482565497754477
 10
0.2928895179503597
 20
0.5441009790315388
 10
0.2972130907101853
 20
0.540778347511405
 10
0.3021354888143373
 20
0.5384978521514139
 10
0.3074332023263642
 20
0.5374240929194283
 10
0.3148138212864522
 20
0.5380191689594005
 10
0.3224617609104277
 20
0.5414876289674418
 10
0.3289425044782366
 20
0.5475743402475697
 10
0.3337619204303879
 20
0.5562905117114987
 10
0.3369248787743162
 20
0.5672260936155018
 10
0.3385161402381884
 20
0.5769498263354107
 10
0.3390211097422702
 20
0.5872809107354798
 10
0.3372239273425039
 20
0.6063491183354817
 10
0.3319087324701933
 20
0.6251431503194099
 10
0.3291579969504212
 20
0.6319397692394438
 10
0.3284801410704752
 20
0.6340653715755398
 10
0.3285037376302897
 20
0.6351308328555288
 10
0.3291709249824093
 20
0.6365354540474897
 10
0.3299599464622229
 20
0.6378634012394535
 10
0.3292554183262837
 20
0.6391941760875631
 10
0.3286715895744043
 20
0.639908597119411
 10
0.31769298474227
 20
0.6342503928795127
 10
0.3067143802222736
 20
0.6285921889515738
 10
0.3068813011584428
 20
0.6276777503354403
 10
0.3074292673821937
 20
0.6262910604075396
 10
0.3077906791341878
 20
0.6261476096714578
 10
0.3081340095504936
 20
0.6261476096714578
 10
0.3094696216462038
 20
0.6260181175035254
 10
0.3120210771504297
 20
0.6247436430555649
 10
0.3146654003904317
 20
0.6217205193674778
 10
0.3178465736064746
 20
0.6154926901755298
 10
0.3205684731504332
 20
0.6069522973275623
 10
0.3225281304862149
 20
0.5976653437035467
 10
0.3233043194062439
 20
0.5887104092475397
 10
0.322983171566225
 20
0.5798509583355198
 10
0.3214479537263113
 20
0.5720867544074029
 10
0.3194398796064348
 20
0.5670757255275359
 10
0.3174541287742159
 20
0.5641243178474147
 10
0.3150422249422347
 20
0.5618293210395198
 10
0.3124933403184862
 20
0.5603651215755301
 10
0.3097282893022308
 20
0.5599882754955648
 10
0.3062838660864502
 20
0.5614586450715278
 10
0.3038921860944814
 20
0.5652890094795318
 10
0.3025775903182053
 20
0.5702481175035113
 10
0.3014664260304016
 20
0.5784579700634423
 10
0.3008952582383513
 20
0.5845541096715668
 10
0.3002258216783948
 20
0.5921809044314097
 10
0.2996647779742583
 20
0.5986215316635289
 10
0.2987263712061931
 20
0.6067840812794679
 10
0.2978333392224703
 20
0.6121442294234667
 10
0.2965701763342432
 20
0.6167046373275041
 10
0.2948604653184201
 20
0.6212916529033974
 10
0.2915560864225046
 20
0.6270169546154403
 10
0.2870277496223297
 20
0.6316015921275478
 10
0.2818657483102207
 20
0.6345922263194437
 10
0.2761378754064481
 20
0.6360309107354781
 10
0.267811415966376
 20
0.6356012536635634
 10
0.2590869537264453
 20
0.6316203685995747
 10
0.2514086571264302
 20
0.6228845305275579
 10
0.2457976275984937
 20
0.6077006096713884
 10
0.2442196342462006
 20
0.5890881382875657
 10
0.2446251138143092
 20
0.5801659813034333
 10
0.2457478467503549
 20
0.571880097775412
 10
0.2478711022223328
 20
0.5631412816634978
 10
0.2512323921022563
 20
0.552638596327455
 10
0.2533678168225126
 20
0.5463697201034732
 10
0.2540207361022748
 20
0.5439819603915437
 10
0.2540556489023027
 20
0.5425943753355007
 10
0.253469956262415
 20
0.5408820291675678
 10
0.2526318443903257
 20
0.5393265257115081
 10
0.2531732548703083
 20
0.5381291754794617
 10
0.2535943522224713
 20
0.5371979029034684
  0
LWPOLYLINE
  5
3FB
330
1F
100
AcDbEntity
  8
SSB-BLUE
370
     0
100
AcDbPolyline
 90
       12
 70
     1
 43
0.0
 10
0.3351934731672443
 20
0.2613605004373465
 10
0.3352480267657558
 20
0.2613605004373465
 10
0.3353976092138602
 20
0.2613605004373465
 10
0.3356211029889851
 20
0.2613605004373465
 10
0.3358973905692864
 20
0.2613605004373465
 10
0.3362053544329049
 20
0.2613605004373465
 10
0.3365238770576253
 20
0.2613605004373465
 10
0.336831840920885
 20
0.2613605004373465
 10
0.3371081285015398
 20
0.2613605004373465
 10
0.3373316222766682
 20
0.2613605004373465
 10
0.3374812047247699
 20
0.2613605004373465
 10
0.3375357583232832
 20
0.2613605004373465
  0
LWPOLYLINE
  5
3FC
330
1F
100
AcDbEntity
  8
SSB-BLUE
370
     0
100
AcDbPolyline
 90
      202
 70
     1
 43
0.0
 10
0.4040527947705482
 20
0.443563625335508
 10
0.4040527947705482
 20
0.4560938988315018
 10
0.402136044326273
 20
0.4560938988315018
 10
0.3906819711502081
 20
0.4560938988315018
 10
0.3898900493184163
 20
0.4561318068314213
 10
0.3892714996462576
 20
0.4562632053194138
 10
0.3887267623102701
 20
0.4564741488314735
 10
0.3882835663102027
 20
0.4567880573355368
 10
0.3879187016542627
 20
0.4572831342554898
 10
0.3876061509744897
 20
0.4578831969914728
 10
0.3873308643264943
 20
0.4585932612554214
 10
0.3871262388143082
 20
0.4588170432554178
 10
0.3866662166544756
 20
0.4588170432554178
 10
0.3861825461425283
 20
0.4588170432554178
 10
0.3860001138143802
 20
0.4586498711594187
 10
0.3860001138143802
 20
0.4501698852555514
 10
0.3860001138143802
 20
0.4356304771515136
 10
0.3860001138143802
 20
0.4244574145755298
 10
0.3860152068143812
 20
0.4209673008314488
 10
0.3861204481583993
 20
0.4176987997515358
 10
0.3863389164864008
 20
0.414895746823496
 10
0.3866856608063589
 20
0.4125807152475068
 10
0.3872183518224021
 20
0.4105285402395449
 10
0.3879373658062368
 20
0.4086236314154386
 10
0.3888677838143684
 20
0.4068609727514448
 10
0.3899943013104714
 20
0.4051632528315184
 10
0.3913714496542537
 20
0.4035814652474779
 10
0.3930567469821726
 20
0.4022451218234897
 10
0.3950276191581823
 20
0.4011567304155204
 10
0.3971167493185303
 20
0.4003514864954108
 10
0.3992252138062202
 20
0.3998107586715536
 10
0.4013895746544299
 20
0.3995201331674263
 10
0.4051533841582647
 20
0.3995588676555108
 10
0.4115873458224267
 20
0.4014627184874931
 10
0.4162089628222017
 20
0.4057980776714532
 10
0.4189881371423603
 20
0.4125749785034128
 10
0.4210754339904464
 20
0.4138084536554381
 10
0.4268326798225202
 20
0.4097518954874078
 10
0.4328858919741743
 20
0.4054867993274156
 10
0.4354979363182441
 20
0.4036433376554421
 10
0.4375326736463477
 20
0.4021590366554957
 10
0.4390958716465399
 20
0.4009384536554777
 10
0.4401825139822453
 20
0.3999615229994067
 10
0.4408585156462213
 20
0.3991690576634088
 10
0.4413545054784214
 20
0.3983185091594548
 10
0.4416813716543287
 20
0.3973558088234679
 10
0.4418340981502214
 20
0.3962608909994571
 10
0.4420818114864602
 20
0.3962608909994571
 10
0.4425975428063067
 20
0.3962608909994571
 10
0.4430401781423461
 20
0.3962608909994571
 10
0.4431290201424148
 20
0.397080552751401
 10
0.4431290201424148
 20
0.4035203753354768
 10
0.4431290201424148
 20
0.4119004600875709
 10
0.4431290201424148
 20
0.4167880729994469
 10
0.4429410594863477
 20
0.4168844260875693
 10
0.4424427321504663
 20
0.4168844260875693
 10
0.4419687701422843
 20
0.4168844260875693
 10
0.4417740968062667
 20
0.4165636195755287
 10
0.4414800926543654
 20
0.4156448806635718
 10
0.4410477801501927
 20
0.4150493397435531
 10
0.4404671263102227
 20
0.4147845213194508
 10
0.4399110630623371
 20
0.4148486566634908
 10
0.4391079566542873
 20
0.4152223936635258
 10
0.4379515542385449
 20
0.4159092956714368
 10
0.4365954281423461
 20
0.4168053964874812
 10
0.4326374997262344
 20
0.4195583453354664
 10
0.4258514108062146
 20
0.4242784301594167
 10
0.4206365220622557
 20
0.4279056616634467
 10
0.4199727701424854
 20
0.4294099234874507
 10
0.4199727701424854
 20
0.434604379663444
 10
0.4199727701424854
 20
0.4406566361595559
 10
0.4199727701424854
 20
0.443563625335508
 10
0.4235718998062837
 20
0.443563625335508
 10
0.4310651694864927
 20
0.443563625335508
 10
0.4374964011504377
 20
0.443563625335508
 10
0.4390792551502632
 20
0.4435546749915318
 10
0.4396927544783447
 20
0.4434667346714996
 10
0.4402274248222433
 20
0.4432910081594477
 10
0.4407033321504219
 20
0.4430350193354356
 10
0.4410933761425353
 20
0.4426346234955166
 10
0.4414070188224644
 20
0.4420928551514898
 10
0.4416683481505049
 20
0.4414457425034657
 10
0.441857634806385
 20
0.4409356958234448
 10
0.4422167321423079
 20
0.4409356958234448
 10
0.4427463861503292
 20
0.4409356958234448
 10
0.4431054834862529
 20
0.4409356958234448
 10
0.4431290201424148
 20
0.442795355911513
 10
0.4431290201424148
 20
0.4493402151675019
 10
0.4431290201424148
 20
0.456221529919433
 10
0.4431229701504052
 20
0.4588170432554178
 10
0.4428160841424607
 20
0.4588170432554178
 10
0.442289910806303
 20
0.4588170432554178
 10
0.4418855634864949
 20
0.4588170432554178
 10
0.4416973544784284
 20
0.4583788685834858
 10
0.4414158231504999
 20
0.4577007453194213
 10
0.4410805451423787
 20
0.4571311902555566
 10
0.4406915201422735
 20
0.4566651879915407
 10
0.4402701104784317
 20
0.4564066398313909
 10
0.4397670054862833
 20
0.456216887671542
 10
0.4391721728062202
 20
0.4561109808313964
 10
0.4368663536542777
 20
0.4560938988315018
 10
0.4217746918225008
 20
0.4560938988315018
 10
0.4040527947705482
 20
0.4560938988315018
 10
0.4040527947705482
 20
0.443563625335508
 10
0.4059254843182583
 20
0.443563625335508
 10
0.4076596274303484
 20
0.443563625335508
 10
0.4090600019903823
 20
0.443563625335508
 10
0.4099960038622701
 20
0.443563625335508
 10
0.4103370279742107
 20
0.443563625335508
 10
0.4103370279742107
 20
0.4419249929114102
 10
0.4103370279742107
 20
0.4401280835114117
 10
0.4103370279742107
 20
0.4379028948314439
 10
0.4103370279742107
 20
0.4354170148634218
 10
0.4103370279742107
 20
0.432838030663393
 10
0.4103370279742107
 20
0.4303335299115059
 10
0.4103370279742107
 20
0.4280710996634465
 10
0.4103370279742107
 20
0.4262183275995329
 10
0.4103370279742107
 20
0.4249428010874157
 10
0.4103370279742107
 20
0.4244121078074264
 10
0.4103369499743259
 20
0.4237419461594767
 10
0.4103362794864634
 20
0.4230243009194617
 10
0.4103343503902215
 20
0.422340361975536
 10
0.4103304962544732
 20
0.4216922949194615
 10
0.4103240506463229
 20
0.4210822656554987
 10
0.4103143474464277
 20
0.4205124394634528
 10
0.4103007202222493
 20
0.4199849819354329
 10
0.4102825022305199
 20
0.4195020589755237
 10
0.4102590279744076
 20
0.4190658364874498
 10
0.4102296300863682
 20
0.4186784794394063
 10
0.4101936430702793
 20
0.4183421540474335
 10
0.4101350160863336
 20
0.4180250784315583
 10
0.4100662216463658
 20
0.4177110859994589
 10
0.4099918739183864
 20
0.417403942279436
 10
0.4099119735263202
 20
0.4171028139194659
 10
0.4098265201583873
 20
0.4168068685034099
 10
0.4097355138142209
 20
0.4165152729914033
 10
0.4096389544945387
 20
0.4162271940314089
 10
0.4095368421982757
 20
0.4159417992074781
 10
0.4094291772382804
 20
0.4156582554795465
 10
0.4093159589902733
 20
0.4153757294954286
 10
0.4091971880785339
 20
0.4150933888395115
 10
0.40893417395022
 20
0.4146427166954778
 10
0.408564586862422
 20
0.4141469733435113
 10
0.4081513631424852
 20
0.4136984761514917
 10
0.4076944191745229
 20
0.4132978079355461
 10
0.4071936719661978
 20
0.4129455521355281
 10
0.4066490379023247
 20
0.4126422918795081
 10
0.4060604339902243
 20
0.4123886096714662
 10
0.4054277769264907
 20
0.4121850892634047
 10
0.4047509834062986
 20
0.4120323131594717
 10
0.4040299698144736
 20
0.4119308647995297
 10
0.4032646531583186
 20
0.4118813269995157
 10
0.4024643288542214
 20
0.4118842495033981
 10
0.4017024273502737
 20
0.4119395839515088
 10
0.4009914832462221
 20
0.4120467643754138
 10
0.4003297471582013
 20
0.4122052073354308
 10
0.3997154703262549
 20
0.4124143303274117
 10
0.3991469033665078
 20
0.4126735495995293
 10
0.3986222968943807
 20
0.4129822829594128
 10
0.3981399021502803
 20
0.4133399466554213
 10
0.3976979697503253
 20
0.4137459578714405
 10
0.3972947503102926
 20
0.4141997334795678
 10
0.3969284950702336
 20
0.4147006903515563
 10
0.3966727099824396
 20
0.4151289886634766
 10
0.3965272839745282
 20
0.415418339647423
 10
0.3963913533744376
 20
0.4157049877755084
 10
0.3962650847903912
 20
0.4159902665354958
 10
0.3961486451424019
 20
0.4162755081674847
 10
0.3960422004144126
 20
0.4165620455354997
 10
0.3959459178382136
 20
0.4168512111914211
 10
0.3958599637102544
 20
0.4171443379994538
 10
0.3957845043262553
 20
0.4174427588234329
 10
0.3957197069183706
 20
0.4177478059034616
 10
0.3956657374701864
 20
0.4180608121035601
 10
0.3956223507503909
 20
0.4183767364395515
 10
0.3955843029744583
 20
0.4187161428313973
 10
0.3955499570783889
 20
0.4191039706874618
 10
0.3955193130621923
 20
0.4195390540635584
 10
0.3954923709262203
 20
0.4200202267035307
 10
0.3954691309822547
 20
0.4205463226635509
 10
0.3954495929185127
 20
0.4211161756874589
 10
0.3954337567342829
 20
0.4217286195194588
 10
0.3954216224302742
 20
0.4223824882155407
 10
0.3954131903182762
 20
0.4230766158315112
 10
0.3954084600865002
 20
0.4238098361115768
 10
0.3954073403184246
 20
0.424429080919551
 10
0.3954073403184246
 20
0.4250508095594708
 10
0.3954073403184246
 20
0.4263987503355083
 10
0.3954073403184246
 20
0.4283053158794763
 10
0.3954073403184246
 20
0.4306029188235465
 10
0.3954073403184246
 20
0.4331239714874027
 10
0.3954073403184246
 20
0.4357008865035699
 10
0.3954073403184246
 20
0.4381660768154685
 10
0.3954073403184246
 20
0.4403519547434938
 10
0.3954073403184246
 20
0.4420909329194549
 10
0.3954073403184246
 20
0.4432154236633928
 10
0.3954117894381932
 20
0.443563625335508
 10
0.3958253716464517
 20
0.443563625335508
 10
0.3968194201823927
 20
0.443563625335508
 10
0.3982633299742142
 20
0.443563625335508
 10
0.4000264959504749
 20
0.443563625335508
 10
0.4019783139743787
 20
0.443563625335508
  0
TEXT
  5
3FD
330
1F
100
AcDbEntity
  8
SSB-BLUE
370
     0
100
AcDbText
 10
1.999886520561411
 20
0.638881211795545
 30
0.0
 40
0.06
  1
De-Embedding
 50
90.0
 71
     2
 72
     1
 11
1.969886520561411
 21
0.359324595151616
 31
0.0
100
AcDbText
 73
     2
1001
ACAD
1000
ACAD_MTEXT_DEFINED_HEIGHT_BEGIN
1070
    46
1040
0.0613298429
1000
ACAD_MTEXT_DEFINED_HEIGHT_END
  0
TEXT
  5
3FE
330
1F
100
AcDbEntity
  8
SSB-BLUE
370
     0
100
AcDbText
 10
2.089349645197376
 20
0.6228954195816387
 30
0.0
 40
0.05
  1
Plug and Play Kit
 50
90.0
 71
     2
 72
     1
 11
2.064349645197376
 21
0.3569165655570821
 31
0.0
100
AcDbText
 73
     2
1001
ACAD
1000
ACAD_MTEXT_DEFINED_HEIGHT_BEGIN
1070
    46
1040
0.0613298429
1000
ACAD_MTEXT_DEFINED_HEIGHT_END
  0
LWPOLYLINE
  5
3FF
330
1F
100
AcDbEntity
  8
SSB-WHITE
370
     0
100
AcDbPolyline
 90
        4
 70
     1
 43
0.0
 10
0.4934999332188719
 20
0.6940000098773878
 10
1.86849993321887
 20
0.6940000098773878
 10
1.86849993321887
 20
0.3940000098773861
 10
0.4934999332188719
 20
0.3940000098773861
  0
TEXT
  5
400
330
1F
100
AcDbEntity
  8
SST-BLUE
370
     0
100
AcDbText
 10
0.24843928416268
 20
0.1750348840063362
 30
0.0
 40
0.05
  1
Port 1
 72
     1
 11
0.3416180017615886
 21
0.2000348840063362
 31
0.0
100
AcDbText
 73
     2
1001
ACAD
1000
ACAD_MTEXT_DEFINED_HEIGHT_BEGIN
1070
    46
1040
0.0613298429
1000
ACAD_MTEXT_DEFINED_HEIGHT_END
  0
TEXT
  5
401
330
1F
100
AcDbEntity
  8
SST-BLUE
370
     0
100
AcDbText
 10
1.926895075362713
 20
0.1750348840063362
 30
0.0
 40
0.05
  1
Port 2
 72
     1
 11
2.020073792961621
 21
0.2000348840063362
 31
0.0
100
AcDbText
 73
     2
1001
ACAD
1000
ACAD_MTEXT_DEFINED_HEIGHT_BEGIN
1070
    46
1040
0.0613298429
1000
ACAD_MTEXT_DEFINED_HEIGHT_END
  0
TEXT
  5
402
330
1F
100
AcDbEntity
  8
SST-BLUE
370
     0
100
AcDbText
 10
0.2553093860409631
 20
0.4844031985042112
 30
0.0
 40
0.05
  1
J1
 72
     1
 11
0.2921954706248648
 21
0.5094031985042112
 31
0.0
100
AcDbText
 73
     2
1001
ACAD
1000
ACAD_MTEXT_DEFINED_HEIGHT_BEGIN
1070
    46
1040
0.0613298429
1000
ACAD_MTEXT_DEFINED_HEIGHT_END
  0
TEXT
  5
403
330
1F
100
AcDbEntity
  8
SST-BLUE
370
     0
100
AcDbText
 10
2.04031937269072
 20
0.4844031985042112
 30
0.0
 40
0.05
  1
J2
 72
     1
 11
2.077205457274621
 21
0.5094031985042112
 31
0.0
100
AcDbText
 73
     2
1001
ACAD
1000
ACAD_MTEXT_DEFINED_HEIGHT_BEGIN
1070
    46
1040
0.0613298429
1000
ACAD_MTEXT_DEFINED_HEIGHT_END
  0
TEXT
  5
404
330
1F
100
AcDbEntity
  8
SST-BLUE
370
     0
100
AcDbText
 10
1.568424689663822
 20
0.0359920481658097
 30
0.0
 40
0.05
  1
907-000-10140
 72
     1
 11
1.805344880659729
 21
0.0609920481658097
 31
0.0
100
AcDbText
 73
     2
1001
ACAD
1000
ACAD_MTEXT_DEFINED_HEIGHT_BEGIN
1070
    46
1040
0.0613298429
1000
ACAD_MTEXT_DEFINED_HEIGHT_END
  0
TEXT
  5
405
330
1F
100
AcDbEntity
  8
FAB
370
     0
100
AcDbText
 10
1.568424689663821
 20
0.0359920481658097
 30
0.0
 40
0.05
  1
907-000-10140
 72
     1
 11
1.805344880659728
 21
0.0609920481658097
 31
0.0
100
AcDbText
 73
     2
1001
ACAD
1000
ACAD_MTEXT_DEFINED_HEIGHT_BEGIN
1070
    46
1040
0.0613298429
1000
ACAD_MTEXT_DEFINED_HEIGHT_END
  0
ENDSEC
  0
SECTION
  2
OBJECTS
  0
DICTIONARY
  5
C
330
0
100
AcDbDictionary
281
     1
  3
ACAD_CIP_PREVIOUS_PRODUCT_INFO
350
216
  3
ACAD_COLOR
350
6B
  3
ACAD_DETAILVIEWSTYLE
350
21B
  3
ACAD_GROUP
350
D
  3
ACAD_LAYOUT
350
1A
  3
ACAD_MATERIAL
350
6A
  3
ACAD_MLEADERSTYLE
350
12D
  3
ACAD_MLINESTYLE
350
17
  3
ACAD_PLOTSETTINGS
350
19
  3
ACAD_PLOTSTYLENAME
350
E
  3
ACAD_SCALELIST
350
10C
  3
ACAD_SECTIONVIEWSTYLE
350
219
  3
ACAD_TABLESTYLE
350
7E
  3
ACAD_VISUALSTYLE
350
EF
  3
ACDB_RECOMPOSE_DATA
350
40A
  3
AcDbVariableDictionary
350
5E
  3
DWGPROPS
350
40B
  0
DICTIONARY
  5
1FF
330
2
100
AcDbDictionary
280
     1
281
     1
  3
ACAD_LAYERSTATES
360
200
  0
DICTIONARY
  5
13C
330
10
100
AcDbDictionary
280
     1
281
     1
  0
DICTIONARY
  5
232
330
231
100
AcDbDictionary
280
     1
281
     1
  0
DICTIONARY
  5
234
330
233
100
AcDbDictionary
280
     1
281
     1
  0
DICTIONARY
  5
236
330
235
100
AcDbDictionary
280
     1
281
     1
  0
DICTIONARY
  5
238
330
237
100
AcDbDictionary
280
     1
281
     1
  0
DICTIONARY
  5
23A
330
239
100
AcDbDictionary
280
     1
281
     1
  0
DICTIONARY
  5
23D
330
23C
100
AcDbDictionary
280
     1
281
     1
  0
DICTIONARY
  5
1CE
330
1F
100
AcDbDictionary
280
     1
281
     1
  0
XRECORD
  5
216
102
{ACAD_REACTORS
330
C
102
}
330
C
100
AcDbXrecord
280
     1
300
ACDLT
300
2013
300
ACDLT_F_S
  0
DICTIONARY
  5
6B
102
{ACAD_REACTORS
330
C
102
}
330
C
100
AcDbDictionary
281
     1
  0
DICTIONARY
  5
21B
102
{ACAD_REACTORS
330
C
102
}
330
C
100
AcDbDictionary
281
     1
  3
Metric50
350
21C
  0
DICTIONARY
  5
D
102
{ACAD_REACTORS
330
C
102
}
330
C
100
AcDbDictionary
281
     1
  0
DICTIONARY
  5
1A
102
{ACAD_REACTORS
330
C
102
}
330
C
100
AcDbDictionary
281
     1
  3
Layout1
350
D3
  3
Layout2
350
D7
  3
Model
350
22
  0
DICTIONARY
  5
6A
102
{ACAD_REACTORS
330
C
102
}
330
C
100
AcDbDictionary
281
     1
  3
ByBlock
350
ED
  3
ByLayer
350
EC
  3
Global
350
EE
  0
DICTIONARY
  5
12D
102
{ACAD_REACTORS
330
C
102
}
330
C
100
AcDbDictionary
281
     1
  3
Annotative
350
13B
  3
Standard
350
12E
  0
DICTIONARY
  5
17
102
{ACAD_REACTORS
330
C
102
}
330
C
100
AcDbDictionary
281
     1
  3
Standard
350
18
  0
DICTIONARY
  5
19
102
{ACAD_REACTORS
330
C
102
}
330
C
100
AcDbDictionary
281
     1
  0
ACDBDICTIONARYWDFLT
  5
E
102
{ACAD_REACTORS
330
C
102
}
330
C
100
AcDbDictionary
281
     1
  3
Normal
350
F
100
AcDbDictionaryWithDefault
340
F
  0
DICTIONARY
  5
10C
102
{ACAD_REACTORS
330
C
102
}
330
C
100
AcDbDictionary
281
     1
  3
A0
350
10D
  3
A1
350
1BE
  3
A2
350
1BF
  3
A3
350
1C0
  3
A4
350
1C1
  3
A5
350
1C2
  3
A6
350
1C3
  3
A7
350
1C4
  3
A8
350
1C5
  3
A9
350
1C6
  3
B0
350
1C7
  3
B1
350
1C8
  3
B2
350
1C9
  3
B3
350
1CA
  3
B4
350
1CB
  3
B5
350
1CC
  3
B6
350
1CD
  0
DICTIONARY
  5
219
102
{ACAD_REACTORS
330
C
102
}
330
C
100
AcDbDictionary
281
     1
  3
Metric50
350
21A
  0
DICTIONARY
  5
7E
102
{ACAD_REACTORS
330
C
102
}
330
C
100
AcDbDictionary
281
     1
  3
Standard
350
7F
  0
DICTIONARY
  5
EF
102
{ACAD_REACTORS
330
C
102
}
330
C
100
AcDbDictionary
281
     1
  3
2dWireframe
350
F5
  3
Basic
350
F4
  3
Brighten
350
FB
  3
ColorChange
350
FF
  3
Conceptual
350
F8
  3
Dim
350
FA
  3
EdgeColorOff
350
1E6
  3
Facepattern
350
FE
  3
Flat
350
F0
  3
FlatWithEdges
350
F1
  3
Gouraud
350
F2
  3
GouraudWithEdges
350
F3
  3
Hidden
350
F7
  3
JitterOff
350
1E4
  3
Linepattern
350
FD
  3
OverhangOff
350
1E5
  3
Realistic
350
F9
  3
Shaded
350
1F3
  3
Shaded with edges
350
1F2
  3
Shades of Gray
350
1EF
  3
Sketchy
350
1F0
  3
Thicken
350
FC
  3
Wireframe
350
F6
  3
X-Ray
350
1F1
  0
XRECORD
  5
40A
102
{ACAD_REACTORS
330
C
102
}
330
C
100
AcDbXrecord
280
     1
 90
        1
330
7F
  0
DICTIONARY
  5
5E
102
{ACAD_REACTORS
330
C
102
}
330
C
100
AcDbDictionary
281
     1
  3
CANNOSCALE
350
146
  3
CMLEADERSTYLE
350
145
  3
CTABLESTYLE
350
84
  3
CVIEWDETAILSTYLE
350
227
  3
CVIEWSECTIONSTYLE
350
228
  3
DIMASSOC
350
5F
  3
HIDETEXT
350
63
  3
INDEXCTL
350
2E0
  3
LAYEREVAL
350
1AE
  3
LAYERNOTIFY
350
1AF
  3
LIGHTINGUNITS
350
2DE
  3
MSLTSCALE
350
2DD
  3
PSOLHEIGHT
350
407
  3
PSOLWIDTH
350
406
  3
SORTENTS
350
2DF
  3
XCLIPFRAME
350
408
  0
XRECORD
  5
40B
102
{ACAD_REACTORS
330
C
102
}
330
C
100
AcDbXrecord
280
     1
  1
DWGPROPS COOKIE
  2

  3

  4

  6

  7

  8
Peter-EMMETT
  9

300
=
301
=
302
=
303
=
304
=
305
=
306
=
307
=
308
=
309
=
 40
0.0016889467592593
 41
2458166.469966319
 42
2458166.479873171
  1

 90
        0
  0
DICTIONARY
  5
200
102
{ACAD_REACTORS
330
1FF
102
}
330
1FF
100
AcDbDictionary
281
     1
  0
ACDBDETAILVIEWSTYLE
  5
21C
102
{ACAD_REACTORS
330
21B
102
}
330
21B
100
AcDbModelDocViewStyle
 70
     0
  3
Metric50
290
     0
100
AcDbDetailViewStyle
 70
     0
 71
     0
 90
        3
 71
     1
340
11
 40
5.0
340
0
 40
5.0
300

 40
0.0
280
     1
 71
     2
340
16
 90
       25
 71
     3
340
11
 40
5.0
 90
        0
 40
15.0
 90
        1
300
%<\AcVar ViewDetailId>% (%<\AcVar ViewScale \f "%sn">%)
 71
     4
340
16
 90
       25
340
16
 90
       25
280
     0
  0
LAYOUT
  5
D3
102
{ACAD_XDICTIONARY
360
40F
102
}
102
{ACAD_REACTORS
330
1A
102
}
330
1A
100
AcDbPlotSettings
  1

  2
C:\Documents and Settings\basas\Application Data\Autodesk\AutoCAD 2005\R16.1\enu\plotters\Default Windows System Printer.pc3
  4

  6

 40
0.0
 41
0.0
 42
0.0
 43
0.0
 44
0.0
 45
0.0
 46
0.0
 47
0.0
 48
0.0
 49
0.0
140
0.0
141
0.0
142
1.0
143
1.0
 70
   688
 72
     0
 73
     0
 74
     5
  7

 75
    16
147
1.0
148
0.0
149
0.0
100
AcDbLayout
  1
Layout1
 70
     1
 71
     1
 10
0.0
 20
0.0
 11
12.0
 21
9.0
 12
0.0
 22
0.0
 32
0.0
 14
0.0
 24
0.0
 34
0.0
 15
0.0
 25
0.0
 35
0.0
146
0.0
 13
0.0
 23
0.0
 33
0.0
 16
1.0
 26
0.0
 36
0.0
 17
0.0
 27
1.0
 37
0.0
 76
     0
330
D2
  0
LAYOUT
  5
D7
102
{ACAD_XDICTIONARY
360
411
102
}
102
{ACAD_REACTORS
330
1A
102
}
330
1A
100
AcDbPlotSettings
  1

  2
C:\Documents and Settings\basas\Application Data\Autodesk\AutoCAD 2005\R16.1\enu\plotters\Default Windows System Printer.pc3
  4

  6

 40
0.0
 41
0.0
 42
0.0
 43
0.0
 44
0.0
 45
0.0
 46
0.0
 47
0.0
 48
0.0
 49
0.0
140
0.0
141
0.0
142
1.0
143
1.0
 70
   688
 72
     0
 73
     0
 74
     5
  7

 75
    16
147
1.0
148
0.0
149
0.0
100
AcDbLayout
  1
Layout2
 70
     1
 71
     2
 10
0.0
 20
0.0
 11
12.0
 21
9.0
 12
0.0
 22
0.0
 32
0.0
 14
0.0
 24
0.0
 34
0.0
 15
0.0
 25
0.0
 35
0.0
146
0.0
 13
0.0
 23
0.0
 33
0.0
 16
1.0
 26
0.0
 36
0.0
 17
0.0
 27
1.0
 37
0.0
 76
     0
330
D6
  0
LAYOUT
  5
22
102
{ACAD_XDICTIONARY
360
40C
102
}
102
{ACAD_REACTORS
330
1A
102
}
330
1A
100
AcDbPlotSettings
  1

  2
none_device
  4
ISO_A4_(210.00_x_297.00_MM)
  6

 40
7.5
 41
20.0
 42
7.5
 43
20.0
 44
210.0
 45
297.0
 46
11.54999923706054
 47
-13.65000009536743
 48
0.0
 49
0.0
140
0.0
141
0.0
142
1.0
143
8.704084754739808
 70
 11952
 72
     1
 73
     0
 74
     0
  7

 75
     0
147
0.1148885871608098
148
0.0
149
0.0
100
AcDbLayout
  1
Model
 70
     1
 71
     0
 10
0.0
 20
0.0
 11
12.0
 21
9.0
 12
0.0
 22
0.0
 32
0.0
 14
0.0
 24
0.0
 34
0.0
 15
0.0
 25
0.0
 35
0.0
146
0.0
 13
0.0
 23
0.0
 33
0.0
 16
1.0
 26
0.0
 36
0.0
 17
0.0
 27
1.0
 37
0.0
 76
     0
330
1F
331
EA
1001
ACAD_PSEXT
1000
None
1000
None
1000
Not applicable
1000
The layout will not be plotted unless a new plotter configuration name is selected.
1070
     0
  0
MATERIAL
  5
ED
102
{ACAD_XDICTIONARY
360
1F9
102
}
102
{ACAD_REACTORS
330
6A
102
}
330
6A
100
AcDbMaterial
  1
ByBlock
  0
MATERIAL
  5
EC
102
{ACAD_XDICTIONARY
360
1F7
102
}
102
{ACAD_REACTORS
330
6A
102
}
330
6A
100
AcDbMaterial
  1
ByLayer
  0
MATERIAL
  5
EE
102
{ACAD_XDICTIONARY
360
173
102
}
102
{ACAD_REACTORS
330
6A
102
}
330
6A
100
AcDbMaterial
  1
Global
 43
0.0007999999797903
 43
0.0
 43
0.0
 43
0.0
 43
0.0
 43
0.0007999999797903
 43
0.0
 43
0.0
 43
0.0
 43
0.0
 43
1.0
 43
0.0
 43
0.0
 43
0.0
 43
0.0
 43
1.0
 49
0.0007999999797903
 49
0.0
 49
0.0
 49
0.0
 49
0.0
 49
0.0007999999797903
 49
0.0
 49
0.0
 49
0.0
 49
0.0
 49
1.0
 49
0.0
 49
0.0
 49
0.0
 49
0.0
 49
1.0
142
0.0007999999797903
142
0.0
142
0.0
142
0.0
142
0.0
142
0.0007999999797903
142
0.0
142
0.0
142
0.0
142
0.0
142
1.0
142
0.0
142
0.0
142
0.0
142
0.0
142
1.0
144
0.0007999999797903
144
0.0
144
0.0
144
0.0
144
0.0
144
0.0007999999797903
144
0.0
144
0.0
144
0.0
144
0.0
144
1.0
144
0.0
144
0.0
144
0.0
144
0.0
144
1.0
1001
ACAD
1070
    -1
1070
     3
1070
     0
1000

1071
        0
1070
     0
  0
MLEADERSTYLE
  5
13B
102
{ACAD_REACTORS
330
12D
102
}
330
12D
100
AcDbMLeaderStyle
170
     2
171
     1
172
     0
 90
        2
 40
0.0
 41
0.0
173
     1
 91
-1056964608
340
14
 92
       -2
290
     1
 42
2.0
291
     1
 43
8.0
  3
Standard
 44
4.0
300

342
11
174
     1
178
     1
175
     1
176
     0
 93
-1056964608
 45
4.0
292
     0
297
     0
 46
4.0
 94
-1056964608
 47
1.0
 49
1.0
140
1.0
293
     1
141
0.0
294
     1
177
     0
142
1.0
295
     0
296
     1
143
3.75
1001
ACAD_MLEADERVER
1070
     2
  0
MLEADERSTYLE
  5
12E
102
{ACAD_REACTORS
330
12D
102
}
330
12D
100
AcDbMLeaderStyle
170
     2
171
     1
172
     0
 90
        2
 40
0.0
 41
0.0
173
     1
 91
-1056964608
340
14
 92
       -2
290
     1
 42
2.0
291
     1
 43
8.0
  3
Standard
 44
4.0
300

342
11
174
     1
178
     1
175
     1
176
     0
 93
-1056964608
 45
4.0
292
     0
297
     0
 46
4.0
 94
-1056964608
 47
1.0
 49
1.0
140
1.0
293
     1
141
0.0
294
     1
177
     0
142
1.0
295
     0
296
     0
143
3.75
1001
ACAD_MLEADERVER
1070
     2
  0
MLINESTYLE
  5
18
102
{ACAD_REACTORS
330
17
102
}
330
17
100
AcDbMlineStyle
  2
STANDARD
 70
     0
  3

 62
   256
 51
90.0
 52
90.0
 71
     2
 49
0.5
 62
   256
  6
BYLAYER
 49
-0.5
 62
   256
  6
BYLAYER
  0
ACDBPLACEHOLDER
  5
F
102
{ACAD_REACTORS
330
E
102
}
330
E
  0
SCALE
  5
10D
102
{ACAD_REACTORS
330
10C
102
}
330
10C
100
AcDbScale
 70
     0
300
1:1
140
1.0
141
1.0
290
     1
  0
SCALE
  5
1BE
102
{ACAD_REACTORS
330
10C
102
}
330
10C
100
AcDbScale
 70
     0
300
1:2
140
1.0
141
2.0
290
     0
  0
SCALE
  5
1BF
102
{ACAD_REACTORS
330
10C
102
}
330
10C
100
AcDbScale
 70
     0
300
1:4
140
1.0
141
4.0
290
     0
  0
SCALE
  5
1C0
102
{ACAD_REACTORS
330
10C
102
}
330
10C
100
AcDbScale
 70
     0
300
1:5
140
1.0
141
5.0
290
     0
  0
SCALE
  5
1C1
102
{ACAD_REACTORS
330
10C
102
}
330
10C
100
AcDbScale
 70
     0
300
1:8
140
1.0
141
8.0
290
     0
  0
SCALE
  5
1C2
102
{ACAD_REACTORS
330
10C
102
}
330
10C
100
AcDbScale
 70
     0
300
1:10
140
1.0
141
10.0
290
     0
  0
SCALE
  5
1C3
102
{ACAD_REACTORS
330
10C
102
}
330
10C
100
AcDbScale
 70
     0
300
1:16
140
1.0
141
16.0
290
     0
  0
SCALE
  5
1C4
102
{ACAD_REACTORS
330
10C
102
}
330
10C
100
AcDbScale
 70
     0
300
1:20
140
1.0
141
20.0
290
     0
  0
SCALE
  5
1C5
102
{ACAD_REACTORS
330
10C
102
}
330
10C
100
AcDbScale
 70
     0
300
1:30
140
1.0
141
30.0
290
     0
  0
SCALE
  5
1C6
102
{ACAD_REACTORS
330
10C
102
}
330
10C
100
AcDbScale
 70
     0
300
1:40
140
1.0
141
40.0
290
     0
  0
SCALE
  5
1C7
102
{ACAD_REACTORS
330
10C
102
}
330
10C
100
AcDbScale
 70
     0
300
1:50
140
1.0
141
50.0
290
     0
  0
SCALE
  5
1C8
102
{ACAD_REACTORS
330
10C
102
}
330
10C
100
AcDbScale
 70
     0
300
1:100
140
1.0
141
100.0
290
     0
  0
SCALE
  5
1C9
102
{ACAD_REACTORS
330
10C
102
}
330
10C
100
AcDbScale
 70
     0
300
2:1
140
2.0
141
1.0
290
     0
  0
SCALE
  5
1CA
102
{ACAD_REACTORS
330
10C
102
}
330
10C
100
AcDbScale
 70
     0
300
4:1
140
4.0
141
1.0
290
     0
  0
SCALE
  5
1CB
102
{ACAD_REACTORS
330
10C
102
}
330
10C
100
AcDbScale
 70
     0
300
8:1
140
8.0
141
1.0
290
     0
  0
SCALE
  5
1CC
102
{ACAD_REACTORS
330
10C
102
}
330
10C
100
AcDbScale
 70
     0
300
10:1
140
10.0
141
1.0
290
     0
  0
SCALE
  5
1CD
102
{ACAD_REACTORS
330
10C
102
}
330
10C
100
AcDbScale
 70
     0
300
100:1
140
100.0
141
1.0
290
     0
  0
ACDBSECTIONVIEWSTYLE
  5
21A
102
{ACAD_REACTORS
330
219
102
}
330
219
100
AcDbModelDocViewStyle
 70
     0
  3
Metric50
290
     0
100
AcDbSectionViewStyle
 70
     0
 71
     0
 90
      102
 71
     1
340
11
 40
5.0
340
0
340
0
 40
5.0
300
I, O, Q, S, X, Z
 40
10.0
 90
        0
 40
2.5
 90
        0
 71
     2
340
16
 90
       25
340
16
 90
       50
 40
5.0
 40
2.5
 40
5.0
 71
     3
340
11
 40
5.0
 90
        0
 40
15.0
 90
        1
300
%<\AcVar ViewSectionStartId>%-%<\AcVar ViewSectionEndId>% (%<\AcVar ViewScale \f "%sn">%)
 71
     4
300
ANSI31
 40
1.0
 90
        0
290
     0
290
     0
 90
        6
 40
0.0
 40
1.570796326794896
 40
0.2617993877991494
 40
1.308996938995747
 40
-0.2617993877991494
 40
1.832595714594045
  0
TABLESTYLE
  5
7F
102
{ACAD_XDICTIONARY
360
162
102
}
102
{ACAD_REACTORS
330
7E
102
}
330
7E
100
AcDbTableStyle
  3
Standard
 70
     0
 71
     0
 40
1.5
 41
1.5
280
     0
281
     0
  7
Standard
140
4.5
170
     2
 62
     0
 63
     7
283
     0
274
    -2
284
     1
 64
     0
275
    -2
285
     1
 65
     0
276
    -2
286
     1
 66
     0
277
    -2
287
     1
 67
     0
278
    -2
288
     1
 68
     0
279
    -2
289
     1
 69
     0
  7
Standard
140
6.0
170
     5
 62
     0
 63
     7
283
     0
274
    -2
284
     1
 64
     0
275
    -2
285
     1
 65
     0
276
    -2
286
     1
 66
     0
277
    -2
287
     1
 67
     0
278
    -2
288
     1
 68
     0
279
    -2
289
     1
 69
     0
  7
Standard
140
4.5
170
     5
 62
     0
 63
     7
283
     0
274
    -2
284
     1
 64
     0
275
    -2
285
     1
 65
     0
276
    -2
286
     1
 66
     0
277
    -2
287
     1
 67
     0
278
    -2
288
     1
 68
     0
279
    -2
289
     1
 69
     0
  0
VISUALSTYLE
  5
F5
102
{ACAD_XDICTIONARY
360
41D
102
}
102
{ACAD_REACTORS
330
EF
102
}
330
EF
100
AcDbVisualStyle
  2

 70
     4
 71
     0
 72
     2
 73
     1
 90
        0
 40
-0.6
 41
-30.0
 62
     5
 63
     7
 74
     1
 91
        4
 64
     7
 65
   257
 75
     1
175
     1
 42
1.0
 92
        0
 66
   257
 43
1.0
 76
     1
 77
     6
 78
     2
 67
     7
 79
     5
170
     0
171
     0
290
     0
174
     0
 93
        1
 44
0.0
173
     0
291
     0
 45
0.0
1001
ACAD
1000
AcDbSavedByObjectVersion
1070
     0
  0
VISUALSTYLE
  5
F4
102
{ACAD_XDICTIONARY
360
41B
102
}
102
{ACAD_REACTORS
330
EF
102
}
330
EF
100
AcDbVisualStyle
  2

 70
     7
 71
     1
 72
     0
 73
     1
 90
        0
 40
-0.6
 41
-30.0
 62
     5
 63
     7
 74
     0
 91
        4
 64
     7
 65
   257
 75
     1
175
     1
 42
1.0
 92
        8
 66
     7
 43
1.0
 76
     1
 77
     6
 78
     2
 67
     7
 79
     5
170
     0
171
     0
290
     0
174
     0
 93
        1
 44
0.0
173
     0
291
     1
 45
0.0
1001
ACAD
1000
AcDbSavedByObjectVersion
1070
     0
  0
VISUALSTYLE
  5
FB
102
{ACAD_XDICTIONARY
360
429
102
}
102
{ACAD_REACTORS
330
EF
102
}
330
EF
100
AcDbVisualStyle
  2

 70
    12
 71
     2
 72
     2
 73
     1
 90
        0
 40
-0.6
 41
-30.0
 62
     5
 63
     7
 74
     1
 91
        4
 64
     7
 65
   257
 75
     1
175
     1
 42
1.0
 92
        8
 66
     7
 43
1.0
 76
     1
 77
     6
 78
     2
 67
     7
 79
     5
170
     0
171
     0
290
     0
174
     0
 93
        1
 44
50.0
173
     0
291
     1
 45
0.0
1001
ACAD
1000
AcDbSavedByObjectVersion
1070
     0
  0
VISUALSTYLE
  5
FF
102
{ACAD_XDICTIONARY
360
431
102
}
102
{ACAD_REACTORS
330
EF
102
}
330
EF
100
AcDbVisualStyle
  2

 70
    16
 71
     2
 72
     2
 73
     3
 90
        0
 40
-0.6
 41
-30.0
 62
     5
 63
     8
 74
     1
 91
        4
 64
     7
 65
   257
 75
     1
175
     1
 42
1.0
 92
        8
 66
     8
 43
1.0
 76
     1
 77
     6
 78
     2
 67
     7
 79
     5
170
     0
171
     0
290
     0
174
     0
 93
        1
 44
0.0
173
     0
291
     1
 45
0.0
1001
ACAD
1000
AcDbSavedByObjectVersion
1070
     0
  0
VISUALSTYLE
  5
F8
102
{ACAD_XDICTIONARY
360
423
102
}
102
{ACAD_REACTORS
330
EF
102
}
330
EF
100
AcDbVisualStyle
  2

 70
     9
 71
     3
 72
     2
 73
     1
 90
        0
 40
-0.6
 41
-30.0
 62
     5
 63
     7
 74
     2
 91
        2
 64
     7
 65
   257
 75
     1
175
     1
 42
40.0
 92
        8
 66
     7
 43
1.0
 76
     1
 77
     6
 78
     2
 67
     7
 79
     3
170
     0
171
     0
290
     0
174
     0
 93
        1
 44
0.0
173
     0
291
     0
 45
0.0
1001
ACAD
1000
AcDbSavedByObjectVersion
1070
     0
  0
VISUALSTYLE
  5
FA
102
{ACAD_XDICTIONARY
360
427
102
}
102
{ACAD_REACTORS
330
EF
102
}
330
EF
100
AcDbVisualStyle
  2

 70
    11
 71
     2
 72
     2
 73
     1
 90
        0
 40
-0.6
 41
-30.0
 62
     5
 63
     7
 74
     1
 91
        4
 64
     7
 65
   257
 75
     1
175
     1
 42
1.0
 92
        8
 66
     7
 43
1.0
 76
     1
 77
     6
 78
     2
 67
     7
 79
     5
170
     0
171
     0
290
     0
174
     0
 93
        1
 44
-50.0
173
     0
291
     1
 45
0.0
1001
ACAD
1000
AcDbSavedByObjectVersion
1070
     0
  0
VISUALSTYLE
  5
1E6
102
{ACAD_XDICTIONARY
360
437
102
}
102
{ACAD_REACTORS
330
EF
102
}
330
EF
100
AcDbVisualStyle
  2

 70
    22
 71
     2
 72
     2
 73
     0
 90
        0
 40
-0.6
 41
-30.0
 62
     5
 63
     7
 74
     1
 91
        4
 64
     7
 65
   257
 75
     1
175
     1
 42
1.0
 92
        8
 66
     7
 43
1.0
 76
     1
 77
     6
 78
     2
 67
     7
 79
     5
170
     0
171
     0
290
     0
174
     0
 93
        1
 44
0.0
173
     0
291
     1
 45
0.0
1001
ACAD
1000
AcDbSavedByObjectVersion
1070
     0
  0
VISUALSTYLE
  5
FE
102
{ACAD_XDICTIONARY
360
42F
102
}
102
{ACAD_REACTORS
330
EF
102
}
330
EF
100
AcDbVisualStyle
  2

 70
    15
 71
     2
 72
     2
 73
     1
 90
        0
 40
-0.6
 41
-30.0
 62
     5
 63
     7
 74
     1
 91
        4
 64
     7
 65
   257
 75
     1
175
     1
 42
1.0
 92
        8
 66
     7
 43
1.0
 76
     1
 77
     6
 78
     2
 67
     7
 79
     5
170
     0
171
     0
290
     0
174
     0
 93
        1
 44
0.0
173
     0
291
     1
 45
0.0
1001
ACAD
1000
AcDbSavedByObjectVersion
1070
     0
  0
VISUALSTYLE
  5
F0
102
{ACAD_XDICTIONARY
360
413
102
}
102
{ACAD_REACTORS
330
EF
102
}
330
EF
100
AcDbVisualStyle
  2

 70
     0
 71
     2
 72
     1
 73
     1
 90
        2
 40
-0.6
 41
30.0
 62
     5
 63
     7
 74
     0
 91
        0
 64
     7
 65
   257
 75
     1
175
     1
 42
1.0
 92
        8
 66
     7
 43
1.0
 76
     1
 77
     6
 78
     2
 67
     7
 79
     5
170
     0
171
     0
290
     0
174
     0
 93
       13
 44
0.0
173
     0
291
     1
 45
0.0
1001
ACAD
1000
AcDbSavedByObjectVersion
1070
     0
  0
VISUALSTYLE
  5
F1
102
{ACAD_XDICTIONARY
360
415
102
}
102
{ACAD_REACTORS
330
EF
102
}
330
EF
100
AcDbVisualStyle
  2

 70
     1
 71
     2
 72
     1
 73
     1
 90
        2
 40
-0.6
 41
30.0
 62
     5
 63
     7
 74
     1
 91
        0
 64
     7
 65
   257
 75
     1
175
     1
 42
1.0
 92
        0
 66
   257
 43
1.0
 76
     1
 77
     6
 78
     2
 67
     7
 79
     5
170
     0
171
     0
290
     0
174
     0
 93
       13
 44
0.0
173
     0
291
     1
 45
0.0
1001
ACAD
1000
AcDbSavedByObjectVersion
1070
     0
  0
VISUALSTYLE
  5
F2
102
{ACAD_XDICTIONARY
360
417
102
}
102
{ACAD_REACTORS
330
EF
102
}
330
EF
100
AcDbVisualStyle
  2

 70
     2
 71
     2
 72
     2
 73
     1
 90
        2
 40
-0.6
 41
30.0
 62
     5
 63
     7
 74
     0
 91
        0
 64
     7
 65
   257
 75
     1
175
     1
 42
1.0
 92
        0
 66
     7
 43
1.0
 76
     1
 77
     6
 78
     2
 67
     7
 79
     5
170
     0
171
     0
290
     0
174
     0
 93
       13
 44
0.0
173
     0
291
     1
 45
0.0
1001
ACAD
1000
AcDbSavedByObjectVersion
1070
     0
  0
VISUALSTYLE
  5
F3
102
{ACAD_XDICTIONARY
360
419
102
}
102
{ACAD_REACTORS
330
EF
102
}
330
EF
100
AcDbVisualStyle
  2

 70
     3
 71
     2
 72
     2
 73
     1
 90
        2
 40
-0.6
 41
30.0
 62
     5
 63
     7
 74
     1
 91
        0
 64
     7
 65
   257
 75
     1
175
     1
 42
1.0
 92
        0
 66
   257
 43
1.0
 76
     1
 77
     6
 78
     2
 67
     7
 79
     5
170
     0
171
     0
290
     0
174
     0
 93
       13
 44
0.0
173
     0
291
     1
 45
0.0
1001
ACAD
1000
AcDbSavedByObjectVersion
1070
     0
  0
VISUALSTYLE
  5
F7
102
{ACAD_XDICTIONARY
360
421
102
}
102
{ACAD_REACTORS
330
EF
102
}
330
EF
100
AcDbVisualStyle
  2

 70
     6
 71
     1
 72
     2
 73
     2
 90
        0
 40
-0.6
 41
-30.0
 62
     5
 63
     7
 74
     2
 91
        2
 64
     7
 65
   257
 75
     2
175
     1
 42
40.0
 92
        0
 66
   257
 43
1.0
 76
     1
 77
     6
 78
     2
 67
     7
 79
     3
170
     0
171
     0
290
     0
174
     0
 93
        1
 44
0.0
173
     0
291
     0
 45
0.0
1001
ACAD
1000
AcDbSavedByObjectVersion
1070
     0
  0
VISUALSTYLE
  5
1E4
102
{ACAD_XDICTIONARY
360
433
102
}
102
{ACAD_REACTORS
330
EF
102
}
330
EF
100
AcDbVisualStyle
  2

 70
    20
 71
     2
 72
     2
 73
     0
 90
        0
 40
-0.6
 41
-30.0
 62
     5
 63
     7
 74
     1
 91
        4
 64
     7
 65
   257
 75
     1
175
     1
 42
1.0
 92
       10
 66
     7
 43
1.0
 76
     1
 77
     6
 78
     2
 67
     7
 79
     5
170
     0
171
     0
290
     0
174
     0
 93
        1
 44
0.0
173
     0
291
     1
 45
0.0
1001
ACAD
1000
AcDbSavedByObjectVersion
1070
     0
  0
VISUALSTYLE
  5
FD
102
{ACAD_XDICTIONARY
360
42D
102
}
102
{ACAD_REACTORS
330
EF
102
}
330
EF
100
AcDbVisualStyle
  2

 70
    14
 71
     2
 72
     2
 73
     1
 90
        0
 40
-0.6
 41
-30.0
 62
     5
 63
     7
 74
     1
 91
        4
 64
     7
 65
   257
 75
     7
175
     7
 42
1.0
 92
        8
 66
     7
 43
1.0
 76
     1
 77
     6
 78
     2
 67
     7
 79
     5
170
     0
171
     0
290
     0
174
     0
 93
        1
 44
0.0
173
     0
291
     1
 45
0.0
1001
ACAD
1000
AcDbSavedByObjectVersion
1070
     0
  0
VISUALSTYLE
  5
1E5
102
{ACAD_XDICTIONARY
360
435
102
}
102
{ACAD_REACTORS
330
EF
102
}
330
EF
100
AcDbVisualStyle
  2

 70
    21
 71
     2
 72
     2
 73
     0
 90
        0
 40
-0.6
 41
-30.0
 62
     5
 63
     7
 74
     1
 91
        4
 64
     7
 65
   257
 75
     1
175
     1
 42
1.0
 92
        9
 66
     7
 43
1.0
 76
     1
 77
     6
 78
     2
 67
     7
 79
     5
170
     0
171
     0
290
     0
174
     0
 93
        1
 44
0.0
173
     0
291
     1
 45
0.0
1001
ACAD
1000
AcDbSavedByObjectVersion
1070
     0
  0
VISUALSTYLE
  5
F9
102
{ACAD_XDICTIONARY
360
425
102
}
102
{ACAD_REACTORS
330
EF
102
}
330
EF
100
AcDbVisualStyle
  2

 70
     8
 71
     2
 72
     3
 73
     0
 90
        2
 40
-0.6
 41
30.0
 62
     5
 63
     7
 74
     0
 91
        0
 64
     7
 65
   257
 75
     1
175
     1
 42
1.0
 92
        8
 66
   257
 43
1.0
 76
     1
 77
     6
 78
     2
 67
     7
 79
     3
170
     0
171
     0
290
     0
174
     0
 93
       13
 44
0.0
173
     0
291
     0
 45
0.0
1001
ACAD
1000
AcDbSavedByObjectVersion
1070
     0
  0
VISUALSTYLE
  5
1F3
102
{ACAD_XDICTIONARY
360
441
102
}
102
{ACAD_REACTORS
330
EF
102
}
330
EF
100
AcDbVisualStyle
  2

 70
    27
 71
     2
 72
     2
 73
     1
 90
        2
 40
-0.6
 41
30.0
 62
     5
 63
     7
 74
     0
 91
        4
 64
     7
 65
   257
 75
     1
175
     1
 42
1.0
 92
        8
 66
   257
 43
1.0
 76
     1
 77
     6
 78
     2
 67
     8
 79
     3
170
     0
171
     0
290
     0
174
     0
 93
        5
 44
0.0
173
     0
291
     0
 45
0.0
1001
ACAD
1000
AcDbSavedByObjectVersion
1070
     0
  0
VISUALSTYLE
  5
1F2
102
{ACAD_XDICTIONARY
360
43F
102
}
102
{ACAD_REACTORS
330
EF
102
}
330
EF
100
AcDbVisualStyle
  2

 70
    26
 71
     2
 72
     2
 73
     1
 90
        2
 40
-0.6
 41
30.0
 62
     5
 63
     7
 74
     1
 91
       10
 64
     7
 65
   257
 75
     2
175
     1
 42
1.0
 92
        8
 66
   257
 43
1.0
 76
     1
 77
     6
 78
     2
 67
     7
 79
     3
170
     0
171
     0
290
     0
174
     0
 93
        5
 44
0.0
173
     0
291
     0
 45
0.0
1001
ACAD
1000
AcDbSavedByObjectVersion
1070
     0
  0
VISUALSTYLE
  5
1EF
102
{ACAD_XDICTIONARY
360
439
102
}
102
{ACAD_REACTORS
330
EF
102
}
330
EF
100
AcDbVisualStyle
  2

 70
    23
 71
     2
 72
     2
 73
     3
 90
        0
 40
-0.6
 41
-30.0
 62
     5
 63
     7
 74
     2
 91
        2
 64
     7
 65
     7
 75
     1
175
     1
 42
40.0
 92
        8
 66
     7
 43
1.0
 76
     1
 77
     6
 78
     2
 67
     7
 79
     3
170
     0
171
     0
290
     0
174
     0
 93
        1
 44
0.0
173
     0
291
     0
 45
0.0
1001
ACAD
1000
AcDbSavedByObjectVersion
1070
     0
  0
VISUALSTYLE
  5
1F0
102
{ACAD_XDICTIONARY
360
43B
102
}
102
{ACAD_REACTORS
330
EF
102
}
330
EF
100
AcDbVisualStyle
  2

 70
    24
 71
     1
 72
     2
 73
     2
 90
        0
 40
-0.6
 41
-30.0
 62
     5
 63
     7
 74
     2
 91
        2
 64
     7
 65
     7
 75
     1
175
     1
 42
40.0
 92
       11
 66
     7
 43
1.0
 76
     1
 77
     6
 78
     2
 67
     7
 79
     6
170
     0
171
     0
290
     0
174
     0
 93
        1
 44
0.0
173
     0
291
     0
 45
0.0
1001
ACAD
1000
AcDbSavedByObjectVersion
1070
     0
  0
VISUALSTYLE
  5
FC
102
{ACAD_XDICTIONARY
360
42B
102
}
102
{ACAD_REACTORS
330
EF
102
}
330
EF
100
AcDbVisualStyle
  2

 70
    13
 71
     2
 72
     2
 73
     1
 90
        0
 40
-0.6
 41
-30.0
 62
     5
 63
     7
 74
     1
 91
        4
 64
     7
 65
   257
 75
     1
175
     1
 42
1.0
 92
       12
 66
     7
 43
1.0
 76
     1
 77
     6
 78
     2
 67
     7
 79
     5
170
     0
171
     0
290
     0
174
     0
 93
        1
 44
0.0
173
     0
291
     1
 45
0.0
1001
ACAD
1000
AcDbSavedByObjectVersion
1070
     0
  0
VISUALSTYLE
  5
F6
102
{ACAD_XDICTIONARY
360
41F
102
}
102
{ACAD_REACTORS
330
EF
102
}
330
EF
100
AcDbVisualStyle
  2

 70
     5
 71
     0
 72
     2
 73
     0
 90
        0
 40
-0.6
 41
-30.0
 62
     5
 63
     7
 74
     1
 91
        4
 64
     7
 65
   257
 75
     1
175
     1
 42
1.0
 92
        0
 66
   257
 43
1.0
 76
     1
 77
     6
 78
     2
 67
     7
 79
     3
170
     0
171
     0
290
     0
174
     0
 93
        1
 44
0.0
173
     0
291
     0
 45
0.0
1001
ACAD
1000
AcDbSavedByObjectVersion
1070
     0
  0
VISUALSTYLE
  5
1F1
102
{ACAD_XDICTIONARY
360
43D
102
}
102
{ACAD_REACTORS
330
EF
102
}
330
EF
100
AcDbVisualStyle
  2

 70
    25
 71
     2
 72
     2
 73
     1
 90
        1
 40
0.5
 41
-30.0
 62
     5
 63
     7
 74
     1
 91
        0
 64
     7
 65
   257
 75
     1
175
     1
 42
1.0
 92
        8
 66
     7
 43
1.0
 76
     1
 77
     6
 78
     2
 67
     7
 79
     3
170
     0
171
     0
290
     0
174
     0
 93
       13
 44
0.0
173
     0
291
     0
 45
0.0
1001
ACAD
1000
AcDbSavedByObjectVersion
1070
     0
  0
DICTIONARYVAR
  5
146
102
{ACAD_REACTORS
330
5E
102
}
330
5E
100
DictionaryVariables
280
     0
  1
1:1
  0
DICTIONARYVAR
  5
145
102
{ACAD_REACTORS
330
5E
102
}
330
5E
100
DictionaryVariables
280
     0
  1
STANDARD
  0
DICTIONARYVAR
  5
84
102
{ACAD_REACTORS
330
5E
102
}
330
5E
100
DictionaryVariables
280
     0
  1
STANDARD
  0
DICTIONARYVAR
  5
227
102
{ACAD_REACTORS
330
5E
102
}
330
5E
100
DictionaryVariables
280
     0
  1
Metric50
  0
DICTIONARYVAR
  5
228
102
{ACAD_REACTORS
330
5E
102
}
330
5E
100
DictionaryVariables
280
     0
  1
Metric50
  0
DICTIONARYVAR
  5
5F
102
{ACAD_REACTORS
330
5E
102
}
330
5E
100
DictionaryVariables
280
     0
  1
2
  0
DICTIONARYVAR
  5
63
102
{ACAD_REACTORS
330
5E
102
}
330
5E
100
DictionaryVariables
280
     0
  1
1
  0
DICTIONARYVAR
  5
2E0
102
{ACAD_REACTORS
330
5E
102
}
330
5E
100
DictionaryVariables
280
     0
  1
0
  0
DICTIONARYVAR
  5
1AE
102
{ACAD_REACTORS
330
5E
102
}
330
5E
100
DictionaryVariables
280
     0
  1
0
  0
DICTIONARYVAR
  5
1AF
102
{ACAD_REACTORS
330
5E
102
}
330
5E
100
DictionaryVariables
280
     0
  1
0
  0
DICTIONARYVAR
  5
2DE
102
{ACAD_REACTORS
330
5E
102
}
330
5E
100
DictionaryVariables
280
     0
  1
2
  0
DICTIONARYVAR
  5
2DD
102
{ACAD_REACTORS
330
5E
102
}
330
5E
100
DictionaryVariables
280
     0
  1
1
  0
DICTIONARYVAR
  5
407
102
{ACAD_REACTORS
330
5E
102
}
330
5E
100
DictionaryVariables
280
     0
  1
80.000000
  0
DICTIONARYVAR
  5
406
102
{ACAD_REACTORS
330
5E
102
}
330
5E
100
DictionaryVariables
280
     0
  1
5.000000
  0
DICTIONARYVAR
  5
2DF
102
{ACAD_REACTORS
330
5E
102
}
330
5E
100
DictionaryVariables
280
     0
  1
127
  0
DICTIONARYVAR
  5
408
102
{ACAD_REACTORS
330
5E
102
}
330
5E
100
DictionaryVariables
280
     0
  1
2
  0
DICTIONARY
  5
40F
330
D3
100
AcDbDictionary
280
     1
281
     1
  3
ACAD_XREC_ROUNDTRIP
360
410
  0
DICTIONARY
  5
411
330
D7
100
AcDbDictionary
280
     1
281
     1
  3
ACAD_XREC_ROUNDTRIP
360
412
  0
DICTIONARY
  5
40C
330
22
100
AcDbDictionary
280
     1
281
     1
  3
ACAD_XREC_ROUNDTRIP
360
40D
  0
DICTIONARY
  5
1F9
330
ED
100
AcDbDictionary
280
     1
281
     1
  3
ACAD_XREC_ROUNDTRIP
360
33A
  3
FBXASSET
360
1FA
  0
DICTIONARY
  5
1F7
330
EC
100
AcDbDictionary
280
     1
281
     1
  3
ACAD_XREC_ROUNDTRIP
360
339
  3
FBXASSET
360
1F8
  0
DICTIONARY
  5
173
330
EE
100
AcDbDictionary
280
     1
281
     1
  3
ACAD_XREC_ROUNDTRIP
360
33B
  3
BUMPTILE
360
175
  3
DIFFUSETILE
360
174
  3
FBXASSET
360
1FB
  3
OPACITYTILE
360
176
  3
REFLECTIONTILE
360
177
  0
DICTIONARY
  5
162
330
7F
100
AcDbDictionary
280
     1
281
     1
  3
ACAD_ROUNDTRIP_2008_TABLESTYLE_CELLSTYLEMAP
360
409
  3
ACAD_XREC_ROUNDTRIP
360
40E
  0
DICTIONARY
  5
41D
330
F5
100
AcDbDictionary
280
     1
281
     1
  3
ACAD_XREC_ROUNDTRIP
360
41E
  0
DICTIONARY
  5
41B
330
F4
100
AcDbDictionary
280
     1
281
     1
  3
ACAD_XREC_ROUNDTRIP
360
41C
  0
DICTIONARY
  5
429
330
FB
100
AcDbDictionary
280
     1
281
     1
  3
ACAD_XREC_ROUNDTRIP
360
42A
  0
DICTIONARY
  5
431
330
FF
100
AcDbDictionary
280
     1
281
     1
  3
ACAD_XREC_ROUNDTRIP
360
432
  0
DICTIONARY
  5
423
330
F8
100
AcDbDictionary
280
     1
281
     1
  3
ACAD_XREC_ROUNDTRIP
360
424
  0
DICTIONARY
  5
427
330
FA
100
AcDbDictionary
280
     1
281
     1
  3
ACAD_XREC_ROUNDTRIP
360
428
  0
DICTIONARY
  5
437
330
1E6
100
AcDbDictionary
280
     1
281
     1
  3
ACAD_XREC_ROUNDTRIP
360
438
  0
DICTIONARY
  5
42F
330
FE
100
AcDbDictionary
280
     1
281
     1
  3
ACAD_XREC_ROUNDTRIP
360
430
  0
DICTIONARY
  5
413
330
F0
100
AcDbDictionary
280
     1
281
     1
  3
ACAD_XREC_ROUNDTRIP
360
414
  0
DICTIONARY
  5
415
330
F1
100
AcDbDictionary
280
     1
281
     1
  3
ACAD_XREC_ROUNDTRIP
360
416
  0
DICTIONARY
  5
417
330
F2
100
AcDbDictionary
280
     1
281
     1
  3
ACAD_XREC_ROUNDTRIP
360
418
  0
DICTIONARY
  5
419
330
F3
100
AcDbDictionary
280
     1
281
     1
  3
ACAD_XREC_ROUNDTRIP
360
41A
  0
DICTIONARY
  5
421
330
F7
100
AcDbDictionary
280
     1
281
     1
  3
ACAD_XREC_ROUNDTRIP
360
422
  0
DICTIONARY
  5
433
330
1E4
100
AcDbDictionary
280
     1
281
     1
  3
ACAD_XREC_ROUNDTRIP
360
434
  0
DICTIONARY
  5
42D
330
FD
100
AcDbDictionary
280
     1
281
     1
  3
ACAD_XREC_ROUNDTRIP
360
42E
  0
DICTIONARY
  5
435
330
1E5
100
AcDbDictionary
280
     1
281
     1
  3
ACAD_XREC_ROUNDTRIP
360
436
  0
DICTIONARY
  5
425
330
F9
100
AcDbDictionary
280
     1
281
     1
  3
ACAD_XREC_ROUNDTRIP
360
426
  0
DICTIONARY
  5
441
330
1F3
100
AcDbDictionary
280
     1
281
     1
  3
ACAD_XREC_ROUNDTRIP
360
442
  0
DICTIONARY
  5
43F
330
1F2
100
AcDbDictionary
280
     1
281
     1
  3
ACAD_XREC_ROUNDTRIP
360
440
  0
DICTIONARY
  5
439
330
1EF
100
AcDbDictionary
280
     1
281
     1
  3
ACAD_XREC_ROUNDTRIP
360
43A
  0
DICTIONARY
  5
43B
330
1F0
100
AcDbDictionary
280
     1
281
     1
  3
ACAD_XREC_ROUNDTRIP
360
43C
  0
DICTIONARY
  5
42B
330
FC
100
AcDbDictionary
280
     1
281
     1
  3
ACAD_XREC_ROUNDTRIP
360
42C
  0
DICTIONARY
  5
41F
330
F6
100
AcDbDictionary
280
     1
281
     1
  3
ACAD_XREC_ROUNDTRIP
360
420
  0
DICTIONARY
  5
43D
330
1F1
100
AcDbDictionary
280
     1
281
     1
  3
ACAD_XREC_ROUNDTRIP
360
43E
  0
XRECORD
  5
410
102
{ACAD_REACTORS
330
40F
102
}
330
40F
100
AcDbXrecord
280
     1
102
SHADEPLOT
 70
     0
102
SHADEPLOTRESLEVEL
 70
     2
102
SHADEPLOTCUSTOMDPI
 70
   300
  0
XRECORD
  5
412
102
{ACAD_REACTORS
330
411
102
}
330
411
100
AcDbXrecord
280
     1
102
SHADEPLOT
 70
     0
102
SHADEPLOTRESLEVEL
 70
     2
102
SHADEPLOTCUSTOMDPI
 70
   300
  0
XRECORD
  5
40D
102
{ACAD_REACTORS
330
40C
102
}
330
40C
100
AcDbXrecord
280
     1
102
SHADEPLOT
 70
     0
102
SHADEPLOTRESLEVEL
 70
     2
102
SHADEPLOTCUSTOMDPI
 70
   300
  0
XRECORD
  5
33A
102
{ACAD_REACTORS
330
1F9
102
}
330
1F9
100
AcDbXrecord
280
     1
102
MATERIAL
148
0.0
149
0.0
149
0.0
 93
        0
 94
      127
282
     0
 72
     1
 77
     1
171
     1
175
     1
179
     1
273
     0
  0
XRECORD
  5
1FA
102
{ACAD_REACTORS
330
1F9
102
}
330
1F9
100
AcDbXrecord
280
     1
 70
     1
 90
429727718
  1
D62C5603-E3A1-4AEA-B7FB-FE5D8D0755AF
310
504B03040A0000080000CC70623B3DEE336E79000000790000001B0000006175746F6465736B2D64657369676E2D7061636B6167652E786D6C3C3F786D6C2076657273696F6E3D22312E302220656E636F64696E673D227574662D3822203F3E3C666F726D6174733E3C666F726D61743E687474703A2F2F736368656D612E
310
6175746F6465736B2E636F6D2F64657369676E2D7061636B6167652F323030393C2F666F726D61743E3C2F666F726D6174733E504B0304140006080800CC70623BD486FD9CA0000000F4000000130000005B436F6E74656E745F54797065735D2E786D6C7D8EC10E82300C865F65E91D8A1E8C310C0EEA1BF002731658846E
310
D98AC1B77784ABF1D8FE5FBFBF75BBCE937A534CCEB38643598122B6FEE978D0B0485F9C41B54DDD7D022595594E1A469170414C76A4D9A4D207E29CF43ECE46F218070CC6BECC4078ACAA135ACF422C856C0E68EA1BF5669944DDD7BCDE7B1F8E415D77AECB980613C2E4AC91FC167A2B244592486606FC29C8FD7F045B9A
310
EF7053A7E60B504B0304140006080800CC70623B853B8169EB0000007C01000008000000636F72652E786D6C8D90416EC3201045AF62CDB6C206821CC7C244919D9CA01740401C94182C03558F5F9C3852BBEB6A467FFE9B197D7EFC9E1EC5975982F5AE035262288C535E5B377690E21535501C055FBC8FBF6C503839990E
310
5619041F179FE64D52DE45E362569DD7661365082642A11EB9E920A89B99642953CC8E702F67A9EE7234257977194EC9EAE275C4EABCCF5EAD5940D4AC6F0E35A568B8F43562CD7046CD199FD07E60174276A7BE677B5EADB0E0D14EEFFB6A31321A0D82627C4084204C3F096B71DD52F6819B16635EADF63F509AF53FA164
310
5DDCD1EDDD17164090FCC8732078B56691CB33A85CD7DCC40F504B0304140006080800CC70623B55019EA25F0000007C00000007000000636E782E786D6C4DCB3B0E80201045D1AD90E915ED2CF8AC45050C11660C8261F98AB1B07AC9C97D42D718D865D3E909258CFD00CCE24AC6E326A164D74DC0B4128928FF32603847
310
2BA13128B1252AC747C6BAB984FC68F0B87FE8960A5C09FE86CFB69FBA01504B0304140006080800CC70623BDBABAAF470010000D40300000C0000006662782F636F72652E786D6CC553D16E823014FD95A6AF4B694182CC941A83FA05FB810A9511A125A5257EFE2E82712ECEB8A7F100CD39F7F69E734AF9FADC366850B6
310
AF8DCE7018308C942E4C59EB2AC3DE1D498AD15A706B8CFB56869196ADCAF00863C12B6B7C374385D14E6907A836A59A41D9F7CA615434B0C8705F7CAA5606D23BA8E84F41278B93AC54100640439DE0BDB320004D43C63716C7C399D30917DCFBBA9CD9BA8469F5B156168B24CED3F7248AC8769F27244EB73B92EED8862C
310
B7F13E0C179B3C8F979C8ECD82BBBABDAA2BAC924E9558448CBD9330242CFA08E3154B5651FCC6D215639C8EE5774DBE2B5F6CF2B5768B68963BB5F5588420E442FC700B1139D4CB01F450C1E918227C2E09DF070D8140C84E1E9AAB8F1340832A9CB13130A5F1376A908D57309505ECF2A0DF179C4E9D30F5B239B87E3823
310
7A79C6F31DE1A8A5AEC08474B03C7837EAE4938639B44E5932B833D2C6B6B279CDC613877FA26EE21F4A2A4C63EC7F29A2F301D1F9F7A0E37D145F504B0304140006080800CC70623B9C113CC27E0000009D0000000B0000006662782F636E782E786D6C4DCCDF0A83201C86E15B91DFB94BFB330DD428C8FB886521330DA7
310
6397BF1A1DECE883878F57749FCDA1B7892F1BBC047A23808C7F84D9FA55424E0BE6803A256208E9EF06C84F9B91703228B1C690F78B66B34CD9A5439DF5CF0BFBF65E35BCA1B8D6A5C6F540381E886698B5741C695F9503EBA150A2F8958E3DC3EA0B504B0304140006080800CC70623B7DF2F77C2A010000120200003100
310
00006662782F41393633353835312D344632462D344230382D423046372D3739314545314133324237412F636F72652E786D6C8D51DB8EC22014FC15C2939B0D2DB4B45643319AE817EC0F6041255A68B86CFCFC856D4D76DF7CE190393373060EDB3DC707F856CE6B6B7A480A0C81328395DA5C7B18C3057510EC3873D686
310
3F34088C18550F330C39BB3A1BA7051AAC09CA84841A2BD5020AEF55806078A44B0FFD7053A328440C89E1EFC52486BBB8AA8214A99D789CF9E05200300FC927E4FB4D5B375D43103D5527440FB843077C5AA3F5861C8F645F5787F59E95B390B318B55CE45AA638FAA2957BD7248B390B7A7CC51F9C124149C82B8C378810
310
84AB2F42B7B8DD56F413775B8C5999E9FF4471926F8AA236A1AE96B8B3CC434E5839373893369E1FAF30EA395917409EB7F26AF8801C171837A4A6AC9C89E9F9C9B1A58BA30FD6A5EF5DDDCF894B9AD9B6A59C957943A9FCAE2FD5BC4DFE03504B0304140006080800CC70623BAD7543B64E01000033030000300000006662
310
782F41393633353835312D344632462D344230382D423046372D3739314545314133324237412F636E782E786D6CD593CD6EC32010845F0571AD6CE3D48AD20813A9873E410FBD12D82434182C7EAAE6EDBB2424CD25871E7B41D6EC30B3FA84F9E67BB2E40B4234DE8DB46F1925E094D7C6ED479AD3AE5951B2113C789FEE
310
6C943839C1488B4C05DF079FE72A69D8C96C13AAD6B8631503449F83828872B949AC57D26200B826A308D316B4064D6E46FCDA41C05550DC9E483A00797BFD207EFB092A45DE9514C1BBD22178396BD39D891265658C238DEA00936C654E5E433CB65A26D9F6EDB5EBC14EBF49A45CB856E66048291F6939A9A81BB5C89177
310
38143CA680F4AA299D66A042CEB3354A2684DC9D8D178FE0D9B8B41CAAD720F880EE7EF93C0C18769E099ECC04D5A102C8049A8A05632F4DDF376CF1DE0F6BB65C2F8627B65A33C6BB62177CEBBDAD973006829F89F22E814B54F4BC2BE347F8AA8F681390B50FA73F804400B5F542E796F19FF974E7F78DB802FE05E20750
310
4B0304140006080800CC70623BE75B7789680500003C100000340000006662782F41393633353835312D344632462D344230382D423046372D3739314545314133324237412F6F626A656374732E786D6CAD575B8F9B3818FD2B887D06C22499CB8AA1CA655245D5B455A356FB305264C061D8018C6C3393D95FBFC7600890
310
A4CD5EF210B0B1BFEBF98E3F7B1FF6596ABC522E1296DF9BAE3D320D9A872C4AF2F8DE2CE5CEBA358D0FBEC719939D65A691938CDE9B6ADAF4BD98B3B2D05311DD91329583D9D5FC0F438434A7A611A644887B5384CF34233629258BA878B12322891DEFF6B66BD70BFB62634E8AE781D082709A4B588AF91C528CDA28B73F
310
1C998EEF39EABBEFA97FBD6A7C7E9553F9D3D79FE442923C3C523610337627CB87ABE99D359D4CC6D6E4FACAB5E6ABF9D2726FC6A3C5F56271377BB88362213924694B38DD99FE47C48627A1E7D49F5A8BB5E1A74C0A599ED3B0F21F1E56366B89112D681E218F0915D0D6F17AD41FBA2A369DCF6335D62ABBD39779D5DDD1
310
11D4D8DE3CBB96B2E04FB8202E41051754A1AA8E8F76B4C6DFE810B580B1547F4B84911149794252234D024EF8BBE963A95AE27B3D310A9D5C215C7960FAEE415ED75694C6AFB17BCACA5D99A60A9AA65F217B0BFC53292ACB92BF283FAD0D3621576592CB5BED907C2FA8E9DF794E35E97BEA31BED21FEB401ABB94C44839
310
DCACBF0E1C5DA8DA5B2F4DFFD32AD86F543D9E565E7056502E157C00AD2671CD534549AB752FCA9CDA00677A313F04E51B22FF19E57B300579E3C97EB29F682D92935CEC18CF901B7B54FD8C51F362B56FC72FE0B3C1EAE335EDCCBF5AEC39ADB17DC238973F804BA5E6F6BFE7AF1FB32E523BE9F3BD571418E3631DCA4D48
310
5250CF639223210A9446CA30052EDF057BD35F8329C1ECD84552BF0DC8D18BE7BCE23BFE6BD960AB4A7DE79923A103BEBD80F911CBAA2C60DB19B01CF164A5583B772EE6D3FFA56666CBCDA74DC97724A48F9A58967497E489C4D979006FD7A05E227A1EBDD0F737C623387A9C844D3709995625106D157315F8B8392CD4E0
310
A0B9A720C4BE9829CEF37EA1E13111214D53925356365ADA634861B52519DD27A00AEB808EAF0628E6F435519D446F45CF2C9CF5214F0A15B2F6D06B79DA3EE3CBF7F56780D2F4E7EF73A0F5E5B02A38D07DC852C6B7C1FBB6664213E0C39E3EBA7FF4E1AD23EA2829407C85E586727488B751B2DB9502BC7B228A3FD68B6E
310
A65A22397E690AA8D158D7E404EC8CDA235CC3B7D1898680131CEC2CDF2638C65196279577750F15884AEE19F94199155B92B13297978469D4F8D358DF0AEF7631E28DC8F0D9F437D5D39A83B2231A1D52D543813A824EF8D44BCFF2FA6A31BD1E8DAD87F1CCB526B3879935BF59CDADD5C37479BB1CDD4CA7B3556B516589
310
EF352754B706114D9C885EC9131DE6EFEB43D99AFE2391C2F958179413D7CFEF6B1B6DB1E7600F00DE6E5C67454A339A4BA2E0FBA85ED26F045D454F463DBFCE484C2F90F2E5E3666003662ED8F755951A7D1BECD5B30B550B2785C8E7320B7292A4838DDA71BBC863ED7613CAF659337A3354231D4FF4A182A54904C2898C
310
98B28C4AD0CE056CCF332A80986E571EE9DBC305BB5FEB7E509220A58D25CF042D712A806AC0AD0C657FDEF80D2D9CEAA2EE4D1C76F60BFE74219A06527D6F82DF6412526107381E55E353090704D085B52408A8913C4ED159D79BDA71BB4BC506F4831350EB6F975CD22D69BF7AC49B91A2C0A9DDA3D5CA36AD20FC478E37
310
E61844E2352865EBCB61A275A65283CAAA9DD27703B4102F5AF51EF5F573B75CBB5AD38BC845F7A49F82A0966A49C2E3EA5EA0ECD326CD965F1DB402C6FA8B51A4658C5C5E2EC9E214602E55810345408596591009A82E7E7FFACA19EEA299B14A0081A705CB3296EBC14CDF658DCD336EA6D1136881AAEB87B81AB9EE53D5
310
F5EB8BC8362082DA24122F98680A4E7930C01A0079749CEA14382A0783E5EBA5A10F8C098456A03D6A4AEB6BB881E2513747552A5DB22C7EDAF83BD5528081A365F7FF06504B0304140006080000CC70623B000000000000000000000000350000006662782F41393633353835312D344632462D344230382D423046372D37
310
39314545314133324237412F76657274696365732E62696E504B0304140006080800CC70623BF270F1330600000004000000360000006662782F41393633353835312D344632462D344230382D423046372D3739314545314133324237412F747269616E676C65732E62696E636660600000504B0304140006080000CC7062
310
3B000000000000000000000000370000006662782F41393633353835312D344632462D344230382D423046372D3739314545314133324237412F617474726962757465732E62696E504B0304140006080800CC70623B08DA0BD19000000041010000360000006662782F41393633353835312D344632462D344230382D4230
310
46372D3739314545314133324237412F6469726563746F72792E786D6C858F410AC3201045AF22B36F53E9A60B35CBEEBAE80D244E44489C6234F4F835464A48035D0DF398FF9F8AF63D0E6CC63039F212F8F9020C7D47C6792B21C5FE7403D62A1188E2E60C98D7234A5830286103A55745067B9D86B8A3CF9C7F90C11DE6
310
07FB144396D7B6A82D282E9A152AD114D5EF2CB866EEE831B8EEA07A7BB5A8D7D61A2BAAEB7FD5F70921FF497D00504B0304140006080800CC70623BEDD1DC58FD000000A00100003B0000006662782F41393633353835312D344632462D344230382D423046372D3739314545314133324237412F7265736F75726365732F
310
636F72652E786D6C8D504B6E833010BD0A9A6D65B00922041947112427E8052C33A156828DFCA97AFC9A40A576D7CDCCE87D344F8F9FBFE667F689CE6B6B3A6039850C8DB2A336530731DC4903D95970676DF82583CCC8193B5861107C72362E3BA4AC096842428D1D7107A5F7182053CF7474E0D507CE32973124857FE48B
310
540F3961CEF244279DE03EB81420DB9EAC1384436FA353E879B1B182C7A8C75DA3C7F453DF353A1075D537A7BA6464B8F535A99AE14A9A2BBD90E350DD183B5CFABE3AF262350B1EF4FC9351399401471025A527C218A1E53BAB5A5AB765F5469B96525EACF23FA6B88CFF34456DC2A1DCE36E360F82A5202F42F062ED2BAD
310
579969AFDD8A6F504B010214000A0000080000CC70623B3DEE336E79000000790000001B00000000000000000000000000000000006175746F6465736B2D64657369676E2D7061636B6167652E786D6C504B01021400140006080800CC70623BD486FD9CA0000000F40000001300000000000000000000000000B20000005B
310
436F6E74656E745F54797065735D2E786D6C504B01021400140006080800CC70623B853B8169EB0000007C010000080000000000000000000000000083010000636F72652E786D6C504B01021400140006080800CC70623B55019EA25F0000007C000000070000000000000000000000000094020000636E782E786D6C504B
310
01021400140006080800CC70623BDBABAAF470010000D40300000C00000000000000000000000000180300006662782F636F72652E786D6C504B01021400140006080800CC70623B9C113CC27E0000009D0000000B00000000000000000000000000B20400006662782F636E782E786D6C504B01021400140006080800CC70
310
623B7DF2F77C2A010000120200003100000000000000000000000000590500006662782F41393633353835312D344632462D344230382D423046372D3739314545314133324237412F636F72652E786D6C504B01021400140006080800CC70623BAD7543B64E010000330300003000000000000000000000000000D2060000
310
6662782F41393633353835312D344632462D344230382D423046372D3739314545314133324237412F636E782E786D6C504B01021400140006080800CC70623BE75B7789680500003C10000034000000000000000000000000006E0800006662782F41393633353835312D344632462D344230382D423046372D3739314545
310
314133324237412F6F626A656374732E786D6C504B01021400140006080000CC70623B0000000000000000000000003500000000000000000000000000280E00006662782F41393633353835312D344632462D344230382D423046372D3739314545314133324237412F76657274696365732E62696E504B01021400140006
310
080800CC70623BF270F133060000000400000036000000000000000000000000007B0E00006662782F41393633353835312D344632462D344230382D423046372D3739314545314133324237412F747269616E676C65732E62696E504B01021400140006080000CC70623B0000000000000000000000003700000000000000
310
000000000000D50E00006662782F41393633353835312D344632462D344230382D423046372D3739314545314133324237412F617474726962757465732E62696E504B01021400140006080800CC70623B08DA0BD1900000004101000036000000000000000000000000002A0F00006662782F41393633353835312D344632
310
462D344230382D423046372D3739314545314133324237412F6469726563746F72792E786D6C504B01021400140006080800CC70623BEDD1DC58FD000000A00100003B000000000000000000000000000E1000006662782F41393633353835312D344632462D344230382D423046372D3739314545314133324237412F7265
310
736F75726365732F636F72652E786D6C504B0506000000000E000E0080040000641100000000
  0
XRECORD
  5
339
102
{ACAD_REACTORS
330
1F7
102
}
330
1F7
100
AcDbXrecord
280
     1
102
MATERIAL
148
0.0
149
0.0
149
0.0
 93
        0
 94
      127
282
     0
 72
     1
 77
     1
171
     1
175
     1
179
     1
273
     0
  0
XRECORD
  5
1F8
102
{ACAD_REACTORS
330
1F7
102
}
330
1F7
100
AcDbXrecord
280
     1
 70
     1
 90
429727718
  1
30362254-06B7-45E0-A893-8CFA70E3D6BC
310
504B03040A0000080000CC70623B3DEE336E79000000790000001B0000006175746F6465736B2D64657369676E2D7061636B6167652E786D6C3C3F786D6C2076657273696F6E3D22312E302220656E636F64696E673D227574662D3822203F3E3C666F726D6174733E3C666F726D61743E687474703A2F2F736368656D612E
310
6175746F6465736B2E636F6D2F64657369676E2D7061636B6167652F323030393C2F666F726D61743E3C2F666F726D6174733E504B0304140006080800CC70623BD486FD9CA0000000F4000000130000005B436F6E74656E745F54797065735D2E786D6C7D8EC10E82300C865F65E91D8A1E8C310C0EEA1BF002731658846E
310
D98AC1B77784ABF1D8FE5FBFBF75BBCE937A534CCEB38643598122B6FEE978D0B0485F9C41B54DDD7D022595594E1A469170414C76A4D9A4D207E29CF43ECE46F218070CC6BECC4078ACAA135ACF422C856C0E68EA1BF5669944DDD7BCDE7B1F8E415D77AECB980613C2E4AC91FC167A2B244592486606FC29C8FD7F045B9A
310
EF7053A7E60B504B0304140006080800CC70623B1EC5D7A3EB0000007C01000008000000636F72652E786D6C8D90416EC3201045AF82665B6103C6756C6122AB4D4ED00B204C5C94182C03558F5F9C3852BBEB6A467FFE9B197D71FC9E6FE8CBACC17AD7032D0820E3B41FAD9B7A48F1820F808E52ACDEC75F36404ECDA687
310
4D0629A6D5A76597B477D1B89855E747B38B2A041301E95B6E7A08FAD3CCAA50296647B8168BD2573599823EBB0CA76447F43862C7BCCF5EAC59410E4DDD9C7973C2755553CCCFA4C603E3040F1565ED3B1FDE4E432BCA0D9622DAF9795FAF464533826484B498524CD807E51D79ED187F21878E10516EF63F505AC67F42C9
310
BA58B1FDDD071640D2FCC87D2045B96591CB3DA85CB7DCE40F504B0304140006080800CC70623B55019EA25F0000007C00000007000000636E782E786D6C4DCB3B0E80201045D1AD90E915ED2CF8AC45050C11660C8261F98AB1B07AC9C97D42D718D865D3E909258CFD00CCE24AC6E326A164D74DC0B4128928FF32603847
310
2BA13128B1252AC747C6BAB984FC68F0B87FE8960A5C09FE86CFB69FBA01504B0304140006080800CC70623B8C9102E971010000D40300000C0000006662782F636F72652E786D6CC5535B6E833010BC8AE5DF0A6C08340F1947A84D4ED00B38C6A128602363A31CBFCB234A53A551FA553EC09AD9F5CE8C31DB9E9B1AF5CA
310
7695D1198E428A91D2D214952E33ECDD315861B4E5CC1AE3BE9561A445A3323CC098B3D21ADFCE9034DA29ED00D5A6503328BA4E398C640D8B0C77F253352214DE4145770A5B214FA2546114020D759C75CE8200340D19DE981F0F6746269C33EFAB6266AB02A655C74A59CCF365BADC27CB5D902ED22848F6340DF238A141
310
BE88E2F57B92BFEDF23523433367AE6A2EEAA455C2A902F398D2751045018D3FA264435F3771F242571B4A1919CA6F9A7C5B3CD9E42BED16F12C776AEB308F40C848FC700B1139D4891EF410CEC810227CC6846F8386402064270EF5C5C709A05E49676C024C61FC95EA45ED154CA5211D1FF4FB8291A913A68E9B83EBBB33
310
E2A7673CDE118E5AE8124C0807CB8377834E366998436B950D7A7746DAD846D4CFD978E0F04FD455FC5D49D2D4C6FE9722321F10997F0F32DC47FE05504B0304140006080800CC70623BFFEA85907E0000009D0000000B0000006662782F636E782E786D6C4DCCD10A83201886E15B91FFDC95D95A811AB6F23E625948A6C3
310
E9D8E5AF46073BFAE0E1E365ED67B3E8ADC3CB78C7815C7240DA3DFC64DCC221C519D7805AC182F7F1EF06C88D9BE6703008B6049F9E274D7A1E938DBB5AE3D6131B2589BA0D3D965551E0B2EA732C9B9A624AAEB41E3A557677029960D9AFB4EF11165F504B0304140006080800CC70623B4FEEA4082C0100001202000031
310
0000006662782F39464131463745442D413632322D343644302D413938332D3331353338454246344243312F636F72652E786D6C8D515B6EC32010BC0AE2AB55850DD871ED0813254D72825EC00192A2C460F1A872FC42ED48ED5F7E00CDCECCCEB26C731F6FE05B39AFADE921293004CA082BB5B9F43086336A21D870E6AC
310
0D7F68109861543DCC30E4ECE26C9C164858139409093556AA051CBC570102714B8F1E7AF1A5C6A11862480C7F2DA6415C878B2A4891CA89C7990F2E050073937C42DE1DB7E4F87ED8A36D4329AA9B3D46DBAEAD504556557BD81DEBDD0761E52CE42C462D17B996298E3E6BE59E35C962CE821E1FF18553435012728A7187
310
0841987E927A8D9B35ADDF70BBC6989599FE4F1427F9A4286A132ABAC49D651EF234CD5CE04CDA78BA3DC2A8FB645D00B9DF8B57E215725C60BCA2A463E54C4CE327C7A65E1C7DB02E7DEFCBF594B864C5CA6CDBD49C957943E9FA5D5FBAF336F90F504B0304140006080800CC70623BAD7543B64E01000033030000300000
310
006662782F39464131463745442D413632322D343644302D413938332D3331353338454246344243312F636E782E786D6CD593CD6EC32010845F0571AD6CE3D48AD20813A9873E410FBD12D82434182C7EAAE6EDBB2424CD25871E7B41D6EC30B3FA84F9E67BB2E40B4234DE8DB46F1925E094D7C6ED479AD3AE5951B2113C
310
789FEE6C943839C1488B4C05DF079FE72A69D8C96C13AAD6B8631503449F83828872B949AC57D26200B826A308D316B4064D6E46FCDA41C05550DC9E483A00797BFD207EFB092A45DE9514C1BBD22178396BD39D891265658C238DEA00936C654E5E433CB65A26D9F6EDB5EBC14EBF49A45CB856E66048291F6939A9A81BB5
310
C8917738143CA680F4AA299D66A042CEB3354A2684DC9D8D178FE0D9B8B41CAAD720F880EE7EF93C0C18769E099ECC04D5A102C8049A8A05632F4DDF376CF1DE0F6BB65C2F8627B65A33C6BB62177CEBBDAD973006829F89F22E814B54F4BC2BE347F8AA8F681390B50FA73F804400B5F542E796F19FF974E7F78DB802FE05
310
E207504B0304140006080800CC70623B16AB87BA640500003C100000340000006662782F39464131463745442D413632322D343644302D413938332D3331353338454246344243312F6F626A656374732E786D6CAD575B6FA33818FD2B887DE6924B3BED8A326A92B68A663B534DD4D13E548A0C38942D60649B369D5FBFC7
310
600890A493BDE42160637FD7F31D7FF63E6FB3D478A55C242CBF3247B66B1A340F5994E4F19559CA8D75611A9F7D8F33263BCB4C232719BD32D5B4E97B316765A1A722BA21652A07B3B7B33F0D11D29C9A46981221AE4C113ED38CD8A4942CA2E2C58E882476BCD9DA23BB5ED8171B73523C0F841684D35CC252CCE79062D4
310
468DFA43D7747CCF51DF7D4FFDEB5593E3AB9CCA9FBEFE241792E4E19EB28198C968BAB8199F5D5A67D3E9C49A9E8F47D6EC76B6B0469F26EEFC7C3EBFBCBEB98462213924694B38DD98FE1D62C393D073EA4FADC5DAF04326852CCF6958F90F0F2B9BB5C48816348F90C7840A68EB78EDF68723159BCEE7891A6B95DDE9D3
310
BCEAEEE8086A6C6F9E5D4B59F0175C10A7A0820BAA5055C7473B5AE3CFDD452D602CD5DF12616444529E90D448938013FE6EFA58AA96F85E4F8C42275708571E98FE6827AF6B2B4AE3D7D83D64E5A64C53054DD3AF90BD06FEA9149565C94FCA0F6B834DC85599E4F2423B24DF0B6AFA979E534DFA9E7A4CC6FA631D486393
310
921829879BF5D781A373557BCB85E97FB90DB62B558F8795179C15944B051F40AB495CF35451D26A4727654E6D8033BD98EF82F21D91FF8AF2DD9982BCF1643BDD4EB516C9492E368C67C88DED563FC36D5EACF66DFF057C3658BDBFA69DF9578B3DA735B64F18C7F20770A9D45CFCF7FCF563D6456A277DBEF78A02637CA2
310
43B90A490AEAB94F72244481D24819A6C0E59B606BFA4B3025981DBB48EAB701D97BF19C577CC77F2D1B6C55A9EF3C732474C0B727303F625995056C3B02963D9EAC146BE78EC5FCEC7FA999EBC5EACBAAE41B12D27B4D2C0BBA49F244E2ECDC81B76B502F113D8F5EE8FB1BE3111CDD4FC2AA9B844CAB1288B68AB90A7CDC
310
1C166AB0D3DC5310625FCC14E779BFD0709F8890A629C9292B1B2DED31A4B0DA928CEE135085754027E3018A397D4D5427D15BD1330B677DC8934285AC3DF45A9EB68FF8F2B8FC0A509AFEECFD0FF2DE25CC6047F7214B195F07EFEB9A094D800F7BFAE8FED187B78EA8A3A400F115961BCAD1215E47C966530AF0EE8128FE
310
58CEBB996A8964FFA529A046635D9353B0336A8F700DDF46271A024E70B0B37C9DE01847591E54DED53D54202AB947E4076556AC49C6CA5C9E1226B7F1A7B1BE15DEED62C41B91E1B3E9AFAAA735036547343A925075041DF0A9979E893B391F8FCFA6967B3EFB644DCF6E5CEBFAE272625DCC6FAF3FB93793C5F90CE1EF57
310
407342756B10D1C489E8953CD1617E5CEECAD6F4EF8914CE5D5D504E5C3F1F9736DA62CFC11E00BCDDB8CC8A9466349744C1F75EBDA4DF09BA8A9E8C7A7E9991989E20E5DBDD6A6003664ED8F7A04A8DBE0DF6EAD9B9AA858342E47399053949D2C146EDB85DE4B176BB0965FBAC19BD19AA918E27FA50C1D22402E144464C
310
59462568E704B6E71915404CB72B8FF4EDE184DDAF753F284990D2C6926782963815403548A70C657FDEF80D2D9CEAA2AE4C1C76F60BFE74219A06527D6582DF6412526107381E55E353090704D085B52408D0933C4ED159D79BDA71BB4BC506F4831350EB6F979CD22D69BF7AC49B91A2C0A9DDA3D5CA36AD20FC478E37E6
310
1844E2352865EBCB6EA275A652E3836BE04EFB400BF1A2556F515F1FBB35B2AB35BD889C744FFA1004B5544B121E57F70215746DD2F5E2C1412B602CBF19455AC6C8E5E9922C4E01E65215385004546899059180EAFCF7A707CE7017CD8CDB0410789AB32C63B91E5CEBBBACB17AC6CD347A022D5075FD106377347AAABA7E
310
7D11590744509B44E205134DC1290F06580320F78E537D3D73540E06CB970B431F185308AD40BBD794D6D77003C5A36E8EAA54BA64597CD8F83BD552A080A365F7FF06504B0304140006080000CC70623B000000000000000000000000350000006662782F39464131463745442D413632322D343644302D413938332D3331
310
353338454246344243312F76657274696365732E62696E504B0304140006080800CC70623BF270F1330600000004000000360000006662782F39464131463745442D413632322D343644302D413938332D3331353338454246344243312F747269616E676C65732E62696E636660600000504B0304140006080000CC70623B
310
000000000000000000000000370000006662782F39464131463745442D413632322D343644302D413938332D3331353338454246344243312F617474726962757465732E62696E504B0304140006080800CC70623B08DA0BD19000000041010000360000006662782F39464131463745442D413632322D343644302D413938
310
332D3331353338454246344243312F6469726563746F72792E786D6C858F410AC3201045AF22B36F53E9A60B35CBEEBAE80D244E44489C6234F4F835464A48035D0DF398FF9F8AF63D0E6CC63039F212F8F9020C7D47C6792B21C5FE7403D62A1188E2E60C98D7234A5830286103A55745067B9D86B8A3CF9C7F90C11DE607
310
FB144396D7B6A82D282E9A152AD114D5EF2CB866EEE831B8EEA07A7BB5A8D7D61A2BAAEB7FD5F70921FF497D00504B0304140006080800CC70623B0D6EF93BFE000000A00100003B0000006662782F39464131463745442D413632322D343644302D413938332D3331353338454246344243312F7265736F75726365732F63
310
6F72652E786D6C8D50596E833010BD0A9ADFCA60B334011947A8694ED00B586642AC041B79A97AFC9A40A5F6AF3F33A3B7689E1E3F7DCD8FEC139DD7D6F4C0720A191A65476DA61E62B892236427C19DB5E1970C322367EC618541F0C9D9B8EC90B226A009093576C41D94DE63804C3DD2D18357379C652E63480A7FCF17A9
310
EE72C29CE5894E3AC17D702940B63D59270887DE46A7D0F36263058F518FBB468FE9A7BE6A7420864373B8D4873369AA8691FA421B3294352543C5CAF65C0F6FEF43CB8BD52C78D0F34F46E550061C419494B6843142CB0F5677F4B52BEB177AEC28E5C52AFF638ACBF84F53D42654E51E77B379102C05791282176B5F693D
310
CB4C7BED567C03504B010214000A0000080000CC70623B3DEE336E79000000790000001B00000000000000000000000000000000006175746F6465736B2D64657369676E2D7061636B6167652E786D6C504B01021400140006080800CC70623BD486FD9CA0000000F40000001300000000000000000000000000B20000005B
310
436F6E74656E745F54797065735D2E786D6C504B01021400140006080800CC70623B1EC5D7A3EB0000007C010000080000000000000000000000000083010000636F72652E786D6C504B01021400140006080800CC70623B55019EA25F0000007C000000070000000000000000000000000094020000636E782E786D6C504B
310
01021400140006080800CC70623B8C9102E971010000D40300000C00000000000000000000000000180300006662782F636F72652E786D6C504B01021400140006080800CC70623BFFEA85907E0000009D0000000B00000000000000000000000000B30400006662782F636E782E786D6C504B01021400140006080800CC70
310
623B4FEEA4082C0100001202000031000000000000000000000000005A0500006662782F39464131463745442D413632322D343644302D413938332D3331353338454246344243312F636F72652E786D6C504B01021400140006080800CC70623BAD7543B64E010000330300003000000000000000000000000000D5060000
310
6662782F39464131463745442D413632322D343644302D413938332D3331353338454246344243312F636E782E786D6C504B01021400140006080800CC70623B16AB87BA640500003C1000003400000000000000000000000000710800006662782F39464131463745442D413632322D343644302D413938332D3331353338
310
454246344243312F6F626A656374732E786D6C504B01021400140006080000CC70623B0000000000000000000000003500000000000000000000000000270E00006662782F39464131463745442D413632322D343644302D413938332D3331353338454246344243312F76657274696365732E62696E504B01021400140006
310
080800CC70623BF270F133060000000400000036000000000000000000000000007A0E00006662782F39464131463745442D413632322D343644302D413938332D3331353338454246344243312F747269616E676C65732E62696E504B01021400140006080000CC70623B0000000000000000000000003700000000000000
310
000000000000D40E00006662782F39464131463745442D413632322D343644302D413938332D3331353338454246344243312F617474726962757465732E62696E504B01021400140006080800CC70623B08DA0BD190000000410100003600000000000000000000000000290F00006662782F39464131463745442D413632
310
322D343644302D413938332D3331353338454246344243312F6469726563746F72792E786D6C504B01021400140006080800CC70623B0D6EF93BFE000000A00100003B000000000000000000000000000D1000006662782F39464131463745442D413632322D343644302D413938332D3331353338454246344243312F7265
310
736F75726365732F636F72652E786D6C504B0506000000000E000E0080040000641100000000
  0
XRECORD
  5
33B
102
{ACAD_REACTORS
330
173
102
}
330
173
100
AcDbXrecord
280
     1
102
MATERIAL
148
0.0
149
0.0
149
0.0
 93
        0
 94
      127
282
     0
 72
     1
 77
     1
171
     1
175
     1
179
     1
273
     0
  0
XRECORD
  5
175
102
{ACAD_REACTORS
330
173
102
}
330
173
100
AcDbXrecord
280
     1
270
     1
271
     1
  0
XRECORD
  5
174
102
{ACAD_REACTORS
330
173
102
}
330
173
100
AcDbXrecord
280
     1
270
     1
271
     1
  0
XRECORD
  5
1FB
102
{ACAD_REACTORS
330
173
102
}
330
173
100
AcDbXrecord
280
     1
 70
     0
 90
1673772943
  1
ECE7A1D2-D628-4531-984C-D00F80459256
310
504B03040A0000080000CC70623B3DEE336E79000000790000001B0000006175746F6465736B2D64657369676E2D7061636B6167652E786D6C3C3F786D6C2076657273696F6E3D22312E302220656E636F64696E673D227574662D3822203F3E3C666F726D6174733E3C666F726D61743E687474703A2F2F736368656D612E
310
6175746F6465736B2E636F6D2F64657369676E2D7061636B6167652F323030393C2F666F726D61743E3C2F666F726D6174733E504B0304140006080800CC70623BD486FD9CA0000000F4000000130000005B436F6E74656E745F54797065735D2E786D6C7D8EC10E82300C865F65E91D8A1E8C310C0EEA1BF002731658846E
310
D98AC1B77784ABF1D8FE5FBFBF75BBCE937A534CCEB38643598122B6FEE978D0B0485F9C41B54DDD7D022595594E1A469170414C76A4D9A4D207E29CF43ECE46F218070CC6BECC4078ACAA135ACF422C856C0E68EA1BF5669944DDD7BCDE7B1F8E415D77AECB980613C2E4AC91FC167A2B244592486606FC29C8FD7F045B9A
310
EF7053A7E60B504B0304140006080800CC70623BD9DDAED0EC0000007C01000008000000636F72652E786D6C8D90416EC3201045AF82665B61836D9CD8C2444DD39CA01740405C94182C03558F5F9C3852BBEB6A467FFE9B197D7EF89E6EE8CB2CC17A37002D0820E394D7D68D03A478C17B4007C117EFE32F1B20272733C0
310
2A83E0E3E2D3BC49CABB685CCCAAF3DA6CA20CC14440EA969B0182FA34932C648AD911AEC52CD5558EA6A0CF2EC329598D1E47ACCEFBECC59A050463A7EA5833865FEBDD0E37353BE3EE8DBDE3F6786A48D375FBF6CC78B9C282473B3DEFABC5C86834888A900E538A49F5419B9EB47DD5BC907D4F082F57FB1F28CDFA9F50
310
B22ED6D5F6EE030B20687EE43E10BC5CB3C8E51E54AE6B6EE207504B0304140006080800CC70623B55019EA25F0000007C00000007000000636E782E786D6C4DCB3B0E80201045D1AD90E915ED2CF8AC45050C11660C8261F98AB1B07AC9C97D42D718D865D3E909258CFD00CCE24AC6E326A164D74DC0B4128928FF326038
310
472BA13128B1252AC747C6BAB984FC68F0B87FE8960A5C09FE86CFB69FBA01504B0304140006080800CC70623BA24EB22D72010000D40300000C0000006662782F636F72652E786D6CC5535B6E833010BC8AE5DF0A6C5E49888CA3A6694ED00B38E05014B091B1518EDFE511A5A9D228FD2A1F60CDEC7A67C6986DCE4D8D7A
310
69BA4AAB0C073EC548AA5C17952A33ECECD15B61B4E1CC686DBF9561A44423333CC098B3D268D7CE50AE9595CA02AA74216750749DB418E5352C32DCE59FB211BE70162ABA93DF8AFC244AE9073ED050C759670D0840D390E18DF9F1706664C23973AE2A66B62A605A75ACA4C13C4976E1364A12EF355A2EBD384AF65EFA96
310
BC7B8BED2EA6719AAE16FB8491A199335B351775B991C2CA02F390D2D40B028F861F41BCA68B7518BFD0D59A524686F29B26D7164F36B94AD9289CE54E6D1DE6010819891F6E21228B3AD1831EC219194284CF98F06DD01008846CC5A1BEF83801D4CBDC6A1303536877A57A513B0953A94FC707FDBE6064EA84A9E3E6E0FA
310
EE8CF0E9198F7784A316AA0413C2C2F2E0ECA0934D1AE6D05A69BCDE9E91D2A611F573361E38FC1375157F5752AE6B6DFE4B11990F88CCBF0719EE23FF02504B0304140006080800CC70623B408A7D3B7C0000009D0000000B0000006662782F636E782E786D6C4DCCD10A83201886E15B91FFDC552A92A0064DBC8F581632
310
D3703A76F9ABD1C18E3E78F878E5F0D9027ABBFCF2292AE86E2D20171F69F6715550CB827B40839639A5F2770314A7CD293819B45C73AAFB45B35BA61ACAA1C1C7E7855C58C15BC331339661262CC762340413D68D77DA5B42298546CBE6573AF60CEB2F504B0304140006080800CC70623B449FB9BD290100001202000031
310
0000006662782F36394639363044362D344446342D343946362D394244322D3234314243333846323333332F636F72652E786D6C8D515B6EC32010BC0AE22B55850D98B871848994463E412FE002495162B07854397EA176A4F62F3F2C9A9D991D587EB84F37F0AD7D30CEF6905418026DA553C65E7A98E219ED203808EE9D
310
8B7F6810D871D23D2C3014FCE25D9A57483A1BB58D19B54EE9151C43D0110279CB971E06F9A5A7B11A53CC8C70ADE6515EC78BAE4895DB992778883E0700CB907242D17643D7E2538BD869608875438BBAE38922CAC8F1BDD90DB4691A5E2F42C153326A951B95E398B3D1FE599322163C9AE9115F7A3D46ADA0A018778810
310
84E907617BDCEE297BC5BB3DC6BC2EF47FA234AB2745C9D8D8D035EE220B50105E2F0DC1954B9FB747187D9F9D8FA0CCDB042D5FA0C015C65B42DF78BD10F3F3B363CB56C7109DCFDFBBB97E662ED92EB62D13BC2E1BCAE5777DB9966D8A1F504B0304140006080800CC70623BAD7543B64E01000033030000300000006662
310
782F36394639363044362D344446342D343946362D394244322D3234314243333846323333332F636E782E786D6CD593CD6EC32010845F0571AD6CE3D48AD20813A9873E410FBD12D82434182C7EAAE6EDBB2424CD25871E7B41D6EC30B3FA84F9E67BB2E40B4234DE8DB46F1925E094D7C6ED479AD3AE5951B2113C789FEE
310
6C943839C1488B4C05DF079FE72A69D8C96C13AAD6B8631503449F83828872B949AC57D26200B826A308D316B4064D6E46FCDA41C05550DC9E483A00797BFD207EFB092A45DE9514C1BBD22178396BD39D891265658C238DEA00936C654E5E433CB65A26D9F6EDB5EBC14EBF49A45CB856E66048291F6939A9A81BB5C89177
310
38143CA680F4AA299D66A042CEB3354A2684DC9D8D178FE0D9B8B41CAAD720F880EE7EF93C0C18769E099ECC04D5A102C8049A8A05632F4DDF376CF1DE0F6BB65C2F8627B65A33C6BB62177CEBBDAD973006829F89F22E814B54F4BC2BE347F8AA8F681390B50FA73F804400B5F542E796F19FF974E7F78DB802FE05E20750
310
4B0304140006080800CC70623B8D05915C650500003B100000340000006662782F36394639363044362D344446342D343946362D394244322D3234314243333846323333332F6F626A656374732E786D6CAD575B6FA33814FE2B887D06429276DA1565D4266D158D3A339A6846FB502932E050B66023DB74D2FDF5FB190C01
310
9276B2973C046C8ECFF53B17071F77456EBD502133CEAE6CDF9DD81665314F32965ED995DA3A17B6F5310C04E7AA47665B8C14F4CAD6DB7618A48257A5D94AE89654B91AEDDEDDFC61C998326A5B714EA4BCB265FC440BE2924AF184CA6737218AB8E976E7FA6E4338649B0A523E8D98964450A6A029F619B8588D52FE7039
310
B1BD30F0F4F730D0FF866AF6369557DB33949F31A9088B0F848DD8CCFCF9F2767A76E99CCDE733677E3EF59D9BBB9BA5E37F984D16E78BC5E5F5ED25044B25C0C96822E8D60EEFE11B91C581D77CEA34368A1F5329E68CD1B8B61F16D63A1B8E092D294B10C78C4A48EB593D192E7DED9BDEE7995E1B91FDEDD3ACEA9FE831
310
6A756F9F7D4D79F4274C90A7A04248AA51D5F8C718DAE06FB2F75AC4796EBE65D22A88A22223B995679120E2D50E41AA49C260C046A35368846B0BECD0DFF3EBEB8AD4F835768F69B9ADF25C43D30E6B646F807FAA64AD59F61715C7A54127C4AACA98BA3006A9D792DAE165E0D59B61A01FB3A9F9D838D2DAE62445C86166
310
F37564E842E7DE6A69879FEEA2DD5AE7E371E1A5E025154AC307D06A03D73EB5978C58FFA4C8E9033066E0F3BD53BEC1F39F91BE7B55103791EDE6BBB991A2046172CB4581D8B893FA674DDA17A77B3B7C413D1B511FD2743BFF8A38F03A658705E3ADF8015C3A3417FF3D7E439FF591DA0B5F18BC20C1B8981957AE6392A3
310
F43C640C01D1A0B4728E2DD4F26DB4B3C3152A252A3B4E913CEC1C72F012782FF88EFF8637AA552DBEF76408E8A8DE9E50F9E1CB3A2DA0DB1B6039A893B56063DC5B3E3FFB5F72E67AB9FEB4AEC496C4F4C1149625DD662C53E89D7BF0F6151A046260D1337DFDC94502430F83B0EE07A130A224BCAD7DAE1D9FB6CD422FF6
310
920702629C4BB9AE79C12F243C6432A6794E18E5552BA56B431AAB5D91317302B2B071E86C3A42B1A02F999E24061403B5D0EB639195DA655DD3EBEAB4FB862DDF579F014AD0E73C22F99E28DA57FB98E75C6CA2D74D53086D600F4786E0FE3144B771A8A7B900F03594DB8A633CBC49B2EDB69228BB479CF863B5E807AAAB
310
23872F6DFEB4129B949CA33823F58830E86D65621E10047D9DB34D862E8EAC3C2ABC2F7B2C40D67CDFE01F5545B92105AF983AC54D93D69E56FB8E797F88913F898A9FEC705D3F9D1B54EC8426FB500D40A03BD0119B06E1B95DDC7EB8F6975367793EBD70E66733DFB9BC982F9CE564727731999F5D4ECFCE3B8D6A4DC2A0
310
6D50FD148437D110834A64C6CDDF57FBACB5C307A2A477DFE4939736CFEF2B175371E0E10CF0DD1D5C15654E0BCA14D1E87DD02FF93782A162C0A3D95F1524A52770F972BF1EE9809D13CE7DD599467F8ECE9ADD85CE85A34CD45355448C64F9E8A031DC2D596ACC6E5DD93D9B82DE2EF5CAF81363A8E47996A0DE24564A79
310
4115AACE09C55E14540231FDA13C319787134EBF34E3A022514E5B4D9E0826E25C02D5805B15ABE1BEF51B26383D445DD9E875EE33FE4C22DA16427D65A3BCA92CA6D28DD01DF5DC53330704308475351050232CCD31583787BA75774AFB06E5070DD0C8EF484E19968C5D83BA5B90B244D31E54D55A372320FE4786B7EA58
310
44E135AA5467CB7EA333A61683CC6A8C3257034C10CF46F40EF9F5BE59BE5BD30C3C72D235E95D10345C1D45445A5F0BB47E46A5EBE5570F9380B5FA629579952296A773720405982B9DE04011506178964401AA8BDF1FBF0A8EAB6861DD6580C0E38217056766716DAEB2D6FA0917D3E4116581EADB879C4E7CFFB11EFACD
310
3D641311495D92C8676CB409A72D18610D803CE8A626049E8EC1887CB5B44CC39883690DDA8399B4B9855B481E7D71D4A9D22F96E5BB73BF5793020C02137BF837504B0304140006080000CC70623B000000000000000000000000350000006662782F36394639363044362D344446342D343946362D394244322D32343142
310
43333846323333332F76657274696365732E62696E504B0304140006080800CC70623BF270F1330600000004000000360000006662782F36394639363044362D344446342D343946362D394244322D3234314243333846323333332F747269616E676C65732E62696E636660600000504B0304140006080000CC70623B0000
310
00000000000000000000370000006662782F36394639363044362D344446342D343946362D394244322D3234314243333846323333332F617474726962757465732E62696E504B0304140006080800CC70623B08DA0BD19000000041010000360000006662782F36394639363044362D344446342D343946362D394244322D
310
3234314243333846323333332F6469726563746F72792E786D6C858F410AC3201045AF22B36F53E9A60B35CBEEBAE80D244E44489C6234F4F835464A48035D0DF398FF9F8AF63D0E6CC63039F212F8F9020C7D47C6792B21C5FE7403D62A1188E2E60C98D7234A5830286103A55745067B9D86B8A3CF9C7F90C11DE607FB14
310
4396D7B6A82D282E9A152AD114D5EF2CB866EEE831B8EEA07A7BB5A8D7D61A2BAAEB7FD5F70921FF497D00504B0304140006080800CC70623BCA768048FE000000A00100003B0000006662782F36394639363044362D344446342D343946362D394244322D3234314243333846323333332F7265736F75726365732F636F72
310
652E786D6C8D50596E833010BD0A9ADFCA60D600328E9AA639412F609909B1126CE4A5EAF16B0295DABFFECC8CDEA2797AECF8353F924FB44E193D409E5248504B332A3D0D10FC95B4901C39B3C6F85F3248B49871801506CE266BC2B243D2688FDA47549B11775038871E12F988C7004EDE7016A9083E2ADC3D5D84BC8B09
310
D33C8D74D471E6BC8D0192EDC93A815B742658898E651BCB59086ADC356A8C3FD555A1055ED7E7E254D615792D0F075295F585746FF53B694EE78A565DD736979A65AB9933AFE69F8CD2A2F038022F28ED489E135A7CE4554F9BBEA85E68DB53CAB255FEC71496F19FA6A0B42F8B3DEE6673C0F318E4497096AD7DC5F52C33
310
EEB55BFE0D504B010214000A0000080000CC70623B3DEE336E79000000790000001B00000000000000000000000000000000006175746F6465736B2D64657369676E2D7061636B6167652E786D6C504B01021400140006080800CC70623BD486FD9CA0000000F40000001300000000000000000000000000B20000005B436F
310
6E74656E745F54797065735D2E786D6C504B01021400140006080800CC70623BD9DDAED0EC0000007C010000080000000000000000000000000083010000636F72652E786D6C504B01021400140006080800CC70623B55019EA25F0000007C000000070000000000000000000000000095020000636E782E786D6C504B0102
310
1400140006080800CC70623BA24EB22D72010000D40300000C00000000000000000000000000190300006662782F636F72652E786D6C504B01021400140006080800CC70623B408A7D3B7C0000009D0000000B00000000000000000000000000B50400006662782F636E782E786D6C504B01021400140006080800CC70623B
310
449FB9BD290100001202000031000000000000000000000000005A0500006662782F36394639363044362D344446342D343946362D394244322D3234314243333846323333332F636F72652E786D6C504B01021400140006080800CC70623BAD7543B64E010000330300003000000000000000000000000000D20600006662
310
782F36394639363044362D344446342D343946362D394244322D3234314243333846323333332F636E782E786D6C504B01021400140006080800CC70623B8D05915C650500003B10000034000000000000000000000000006E0800006662782F36394639363044362D344446342D343946362D394244322D32343142433338
310
46323333332F6F626A656374732E786D6C504B01021400140006080000CC70623B0000000000000000000000003500000000000000000000000000250E00006662782F36394639363044362D344446342D343946362D394244322D3234314243333846323333332F76657274696365732E62696E504B010214001400060808
310
00CC70623BF270F13306000000040000003600000000000000000000000000780E00006662782F36394639363044362D344446342D343946362D394244322D3234314243333846323333332F747269616E676C65732E62696E504B01021400140006080000CC70623B00000000000000000000000037000000000000000000
310
00000000D20E00006662782F36394639363044362D344446342D343946362D394244322D3234314243333846323333332F617474726962757465732E62696E504B01021400140006080800CC70623B08DA0BD190000000410100003600000000000000000000000000270F00006662782F36394639363044362D344446342D
310
343946362D394244322D3234314243333846323333332F6469726563746F72792E786D6C504B01021400140006080800CC70623BCA768048FE000000A00100003B000000000000000000000000000B1000006662782F36394639363044362D344446342D343946362D394244322D3234314243333846323333332F7265736F
310
75726365732F636F72652E786D6C504B0506000000000E000E0080040000621100000000
  0
XRECORD
  5
176
102
{ACAD_REACTORS
330
173
102
}
330
173
100
AcDbXrecord
280
     1
270
     1
271
     1
  0
XRECORD
  5
177
102
{ACAD_REACTORS
330
173
102
}
330
173
100
AcDbXrecord
280
     1
270
     1
271
     1
  0
CELLSTYLEMAP
  5
409
102
{ACAD_REACTORS
330
162
102
}
330
162
100
AcDbCellStyleMap
 90
        3
300
CELLSTYLE
  1
TABLEFORMAT_BEGIN
 90
        5
170
     1
 91
        0
 92
    32768
 62
   257
 93
        1
300
CONTENTFORMAT
  1
CONTENTFORMAT_BEGIN
 90
        0
 91
        0
 92
      512
 93
        0
300

 40
0.0
140
1.0
 94
        5
 62
     0
340
11
144
6.0
309
CONTENTFORMAT_END
171
     1
301
MARGIN
  1
CELLMARGIN_BEGIN
 40
1.5
 40
1.5
 40
1.5
 40
1.5
 40
0.18
 40
0.18
309
CELLMARGIN_END
 94
        6
 95
        1
302
GRIDFORMAT
  1
GRIDFORMAT_BEGIN
 90
        0
 91
        1
 62
     0
 92
       -2
340
14
 93
        0
 40
1.125
309
GRIDFORMAT_END
 95
        2
302
GRIDFORMAT
  1
GRIDFORMAT_BEGIN
 90
        0
 91
        1
 62
     0
 92
       -2
340
14
 93
        0
 40
1.125
309
GRIDFORMAT_END
 95
        4
302
GRIDFORMAT
  1
GRIDFORMAT_BEGIN
 90
        0
 91
        1
 62
     0
 92
       -2
340
14
 93
        0
 40
1.125
309
GRIDFORMAT_END
 95
        8
302
GRIDFORMAT
  1
GRIDFORMAT_BEGIN
 90
        0
 91
        1
 62
     0
 92
       -2
340
14
 93
        0
 40
1.125
309
GRIDFORMAT_END
 95
       16
302
GRIDFORMAT
  1
GRIDFORMAT_BEGIN
 90
        0
 91
        1
 62
     0
 92
       -2
340
14
 93
        0
 40
1.125
309
GRIDFORMAT_END
 95
       32
302
GRIDFORMAT
  1
GRIDFORMAT_BEGIN
 90
        0
 91
        1
 62
     0
 92
       -2
340
14
 93
        0
 40
1.125
309
GRIDFORMAT_END
309
TABLEFORMAT_END
  1
CELLSTYLE_BEGIN
 90
        1
 91
        1
300
_TITLE
309
CELLSTYLE_END
300
CELLSTYLE
  1
TABLEFORMAT_BEGIN
 90
        5
170
     1
 91
        0
 92
        0
 62
   257
 93
        1
300
CONTENTFORMAT
  1
CONTENTFORMAT_BEGIN
 90
        0
 91
        0
 92
      512
 93
        0
300

 40
0.0
140
1.0
 94
        5
 62
     0
340
11
144
4.5
309
CONTENTFORMAT_END
171
     1
301
MARGIN
  1
CELLMARGIN_BEGIN
 40
1.5
 40
1.5
 40
1.5
 40
1.5
 40
0.18
 40
0.18
309
CELLMARGIN_END
 94
        6
 95
        1
302
GRIDFORMAT
  1
GRIDFORMAT_BEGIN
 90
        0
 91
        1
 62
     0
 92
       -2
340
14
 93
        0
 40
1.125
309
GRIDFORMAT_END
 95
        2
302
GRIDFORMAT
  1
GRIDFORMAT_BEGIN
 90
        0
 91
        1
 62
     0
 92
       -2
340
14
 93
        0
 40
1.125
309
GRIDFORMAT_END
 95
        4
302
GRIDFORMAT
  1
GRIDFORMAT_BEGIN
 90
        0
 91
        1
 62
     0
 92
       -2
340
14
 93
        0
 40
1.125
309
GRIDFORMAT_END
 95
        8
302
GRIDFORMAT
  1
GRIDFORMAT_BEGIN
 90
        0
 91
        1
 62
     0
 92
       -2
340
14
 93
        0
 40
1.125
309
GRIDFORMAT_END
 95
       16
302
GRIDFORMAT
  1
GRIDFORMAT_BEGIN
 90
        0
 91
        1
 62
     0
 92
       -2
340
14
 93
        0
 40
1.125
309
GRIDFORMAT_END
 95
       32
302
GRIDFORMAT
  1
GRIDFORMAT_BEGIN
 90
        0
 91
        1
 62
     0
 92
       -2
340
14
 93
        0
 40
1.125
309
GRIDFORMAT_END
309
TABLEFORMAT_END
  1
CELLSTYLE_BEGIN
 90
        2
 91
        1
300
_HEADER
309
CELLSTYLE_END
300
CELLSTYLE
  1
TABLEFORMAT_BEGIN
 90
        5
170
     1
 91
        0
 92
        0
 62
   257
 93
        1
300
CONTENTFORMAT
  1
CONTENTFORMAT_BEGIN
 90
        0
 91
        0
 92
      512
 93
        0
300

 40
0.0
140
1.0
 94
        2
 62
     0
340
11
144
4.5
309
CONTENTFORMAT_END
171
     1
301
MARGIN
  1
CELLMARGIN_BEGIN
 40
1.5
 40
1.5
 40
1.5
 40
1.5
 40
0.18
 40
0.18
309
CELLMARGIN_END
 94
        6
 95
        1
302
GRIDFORMAT
  1
GRIDFORMAT_BEGIN
 90
        0
 91
        1
 62
     0
 92
       -2
340
14
 93
        0
 40
1.125
309
GRIDFORMAT_END
 95
        2
302
GRIDFORMAT
  1
GRIDFORMAT_BEGIN
 90
        0
 91
        1
 62
     0
 92
       -2
340
14
 93
        0
 40
1.125
309
GRIDFORMAT_END
 95
        4
302
GRIDFORMAT
  1
GRIDFORMAT_BEGIN
 90
        0
 91
        1
 62
     0
 92
       -2
340
14
 93
        0
 40
1.125
309
GRIDFORMAT_END
 95
        8
302
GRIDFORMAT
  1
GRIDFORMAT_BEGIN
 90
        0
 91
        1
 62
     0
 92
       -2
340
14
 93
        0
 40
1.125
309
GRIDFORMAT_END
 95
       16
302
GRIDFORMAT
  1
GRIDFORMAT_BEGIN
 90
        0
 91
        1
 62
     0
 92
       -2
340
14
 93
        0
 40
1.125
309
GRIDFORMAT_END
 95
       32
302
GRIDFORMAT
  1
GRIDFORMAT_BEGIN
 90
        0
 91
        1
 62
     0
 92
       -2
340
14
 93
        0
 40
1.125
309
GRIDFORMAT_END
309
TABLEFORMAT_END
  1
CELLSTYLE_BEGIN
 90
        3
 91
        2
300
_DATA
309
CELLSTYLE_END
  0
XRECORD
  5
40E
102
{ACAD_REACTORS
330
162
102
}
330
162
100
AcDbXrecord
280
     1
102
ACAD_ROUNDTRIP_PRE2007_TABLESTYLE
 90
      512
 91
        0
  1

 92
      512
 93
        0
  2

 94
      512
 95
        0
  3

  0
XRECORD
  5
41E
102
{ACAD_REACTORS
330
41D
102
}
330
41D
100
AcDbXrecord
280
     1
102
RTVSPost2010Prop28
280
     1
102
RTVSPost2010PropOp28
 70
     1
102
RTVSPost2010Prop29
280
     1
102
RTVSPost2010PropOp29
 70
     1
102
RTVSPost2010Prop30
280
     0
102
RTVSPost2010PropOp30
 70
     1
102
RTVSPost2010Prop31
280
     0
102
RTVSPost2010PropOp31
 70
     1
102
RTVSPost2010Prop32
280
     0
102
RTVSPost2010PropOp32
 70
     1
102
RTVSPost2010Prop33
280
     0
102
RTVSPost2010PropOp33
 70
     1
102
RTVSPost2010Prop34
280
     0
102
RTVSPost2010PropOp34
 70
     1
102
RTVSPost2010Prop35
280
     0
102
RTVSPost2010PropOp35
 70
     1
102
RTVSPost2010Prop36
280
     0
102
RTVSPost2010PropOp36
 70
     1
102
RTVSPost2010Prop37
 90
       50
102
RTVSPost2010PropOp37
 70
     1
102
RTVSPost2010Prop38
140
0.0
102
RTVSPost2010PropOp38
 70
     1
102
RTVSPost2010Prop39
140
1.0
102
RTVSPost2010PropOp39
 70
     1
102
RTVSPost2010Prop40
 90
        0
102
RTVSPost2010PropOp40
 70
     1
102
RTVSPost2010Prop41ColorIndex
 90
       18
102
RTVSPost2010Prop41ColorRGB
 90
        0
102
RTVSPost2010PropOp41
 70
     1
102
RTVSPost2010Prop42
 90
       50
102
RTVSPost2010PropOp42
 70
     1
102
RTVSPost2010Prop43
 90
        3
102
RTVSPost2010PropOp43
 70
     1
102
RTVSPost2010Prop44ColorIndex
 90
        5
102
RTVSPost2010Prop44ColorRGB
 90
      255
102
RTVSPost2010PropOp44
 70
     1
102
RTVSPost2010Prop45
280
     0
102
RTVSPost2010PropOp45
 70
     1
102
RTVSPost2010Prop46
 90
       50
102
RTVSPost2010PropOp46
 70
     1
102
RTVSPost2010Prop47
 90
       50
102
RTVSPost2010PropOp47
 70
     1
102
RTVSPost2010Prop48
 90
       50
102
RTVSPost2010PropOp48
 70
     1
102
RTVSPost2010Prop49
280
     0
102
RTVSPost2010PropOp49
 70
     1
102
RTVSPost2010Prop50
 90
       50
102
RTVSPost2010PropOp50
 70
     1
102
RTVSPost2010Prop51ColorIndex
 90
      256
102
RTVSPost2010Prop51ColorRGB
 90
-16777216
102
RTVSPost2010PropOp51
 70
     0
102
RTVSPost2010Prop52
140
1.0
102
RTVSPost2010PropOp52
 70
     0
102
RTVSPost2010Prop53
 90
        2
102
RTVSPost2010PropOp53
 70
     1
102
RTVSPost2010Prop54
  1
strokes_ogs.tif
102
RTVSPost2010PropOp54
 70
     1
102
RTVSPost2010Prop55
280
     0
102
RTVSPost2010PropOp55
 70
     1
102
RTVSPost2010Prop56
140
1.0
102
RTVSPost2010PropOp56
 70
     1
102
RTVSPost2010Prop57
140
1.0
102
RTVSPost2010PropOp57
 70
     1
102
RTVSPropertyOp0
 70
     1
102
RTVSPropertyOp1
 70
     1
102
RTVSPropertyOp2
 70
     1
102
RTVSPropertyOp3
 70
     1
102
RTVSPropertyOp4
 70
     1
102
RTVSPropertyOp5
 70
     1
102
RTVSPropertyOp6
 70
     1
102
RTVSPropertyOp7
 70
     1
102
RTVSPropertyOp8
 70
     1
102
RTVSPropertyOp9
 70
     1
102
RTVSPropertyOp10
 70
     1
102
RTVSPropertyOp11
 70
     1
102
RTVSPropertyOp12
 70
     1
102
RTVSPropertyOp13
 70
     1
102
RTVSPropertyOp14
 70
     1
102
RTVSPropertyOp15
 70
     1
102
RTVSPropertyOp16
 70
     1
102
RTVSPropertyOp17
 70
     1
102
RTVSPropertyOp18
 70
     1
102
RTVSPropertyOp19
 70
     1
102
RTVSPropertyOp20
 70
     1
102
RTVSPropertyOp21
 70
     1
102
RTVSPropertyOp22
 70
     1
102
RTVSPropertyOp23
 70
     1
102
RTVSPropertyOp24
 70
     1
102
RTVSPropertyOp25
 70
     1
102
RTVSPropertyOp26
 70
     1
102
RTVSPropertyOp27
 70
     1
102
RTVSPropertyOp28
 70
     1
102
RTVSPropertyOp29
 70
     1
102
RTVSPropertyOp30
 70
     1
102
RTVSPropertyOp31
 70
     1
102
RTVSPropertyOp32
 70
     1
102
RTVSPropertyOp33
 70
     1
102
RTVSPropertyOp34
 70
     1
102
RTVSPropertyOp35
 70
     1
102
RTVSPropertyOp36
 70
     1
102
RTVSPropertyOp37
 70
     1
102
RTVSPropertyOp38
 70
     1
102
RTVSPropertyOp39
 70
     1
102
RTVSPropertyOp40
 70
     1
102
RTVSPropertyOp41
 70
     1
102
RTVSPropertyOp42
 70
     1
102
RTVSPropertyOp43
 70
     1
102
RTVSPropertyOp44
 70
     1
102
RTVSPropertyOp45
 70
     1
102
RTVSPropertyOp46
 70
     1
102
RTVSPropertyOp47
 70
     1
102
RTVSPropertyOp48
 70
     1
102
RTVSPropertyOp49
 70
     1
102
RTVSPropertyOp50
 70
     1
102
RTVSPropertyOp51
 70
     0
102
RTVSPropertyOp52
 70
     0
102
RTVSPropertyOp53
 70
     1
102
RTVSPropertyOp54
 70
     1
102
RTVSPropertyOp55
 70
     1
102
RTVSPropertyOp56
 70
     1
102
RTVSPropertyOp57
 70
     1
102
RTVSPropertyOp58
 70
     1
102
RTVSPropertyOp59
 70
     1
102
RTVSPropertyOp60
 70
     1
102
RTVSPropertyOp61
 70
     1
102
RTVSPropertyOp62
 70
     1
  0
XRECORD
  5
41C
102
{ACAD_REACTORS
330
41B
102
}
330
41B
100
AcDbXrecord
280
     1
102
RTVSPost2010Prop28
280
     0
102
RTVSPost2010PropOp28
 70
     1
102
RTVSPost2010Prop29
280
     1
102
RTVSPost2010PropOp29
 70
     1
102
RTVSPost2010Prop30
280
     1
102
RTVSPost2010PropOp30
 70
     1
102
RTVSPost2010Prop31
280
     0
102
RTVSPost2010PropOp31
 70
     1
102
RTVSPost2010Prop32
280
     0
102
RTVSPost2010PropOp32
 70
     1
102
RTVSPost2010Prop33
280
     0
102
RTVSPost2010PropOp33
 70
     1
102
RTVSPost2010Prop34
280
     0
102
RTVSPost2010PropOp34
 70
     1
102
RTVSPost2010Prop35
280
     0
102
RTVSPost2010PropOp35
 70
     1
102
RTVSPost2010Prop36
280
     0
102
RTVSPost2010PropOp36
 70
     1
102
RTVSPost2010Prop37
 90
       50
102
RTVSPost2010PropOp37
 70
     1
102
RTVSPost2010Prop38
140
0.0
102
RTVSPost2010PropOp38
 70
     1
102
RTVSPost2010Prop39
140
1.0
102
RTVSPost2010PropOp39
 70
     1
102
RTVSPost2010Prop40
 90
        0
102
RTVSPost2010PropOp40
 70
     1
102
RTVSPost2010Prop41ColorIndex
 90
       18
102
RTVSPost2010Prop41ColorRGB
 90
        0
102
RTVSPost2010PropOp41
 70
     1
102
RTVSPost2010Prop42
 90
       50
102
RTVSPost2010PropOp42
 70
     1
102
RTVSPost2010Prop43
 90
        3
102
RTVSPost2010PropOp43
 70
     1
102
RTVSPost2010Prop44ColorIndex
 90
        5
102
RTVSPost2010Prop44ColorRGB
 90
      255
102
RTVSPost2010PropOp44
 70
     1
102
RTVSPost2010Prop45
280
     0
102
RTVSPost2010PropOp45
 70
     1
102
RTVSPost2010Prop46
 90
       50
102
RTVSPost2010PropOp46
 70
     1
102
RTVSPost2010Prop47
 90
       50
102
RTVSPost2010PropOp47
 70
     1
102
RTVSPost2010Prop48
 90
       50
102
RTVSPost2010PropOp48
 70
     1
102
RTVSPost2010Prop49
280
     0
102
RTVSPost2010PropOp49
 70
     1
102
RTVSPost2010Prop50
 90
       50
102
RTVSPost2010PropOp50
 70
     1
102
RTVSPost2010Prop51ColorIndex
 90
      256
102
RTVSPost2010Prop51ColorRGB
 90
-16777216
102
RTVSPost2010PropOp51
 70
     0
102
RTVSPost2010Prop52
140
1.0
102
RTVSPost2010PropOp52
 70
     0
102
RTVSPost2010Prop53
 90
        2
102
RTVSPost2010PropOp53
 70
     1
102
RTVSPost2010Prop54
  1
strokes_ogs.tif
102
RTVSPost2010PropOp54
 70
     1
102
RTVSPost2010Prop55
280
     0
102
RTVSPost2010PropOp55
 70
     1
102
RTVSPost2010Prop56
140
1.0
102
RTVSPost2010PropOp56
 70
     1
102
RTVSPost2010Prop57
140
1.0
102
RTVSPost2010PropOp57
 70
     1
102
RTVSPropertyOp0
 70
     1
102
RTVSPropertyOp1
 70
     1
102
RTVSPropertyOp2
 70
     1
102
RTVSPropertyOp3
 70
     1
102
RTVSPropertyOp4
 70
     1
102
RTVSPropertyOp5
 70
     1
102
RTVSPropertyOp6
 70
     1
102
RTVSPropertyOp7
 70
     1
102
RTVSPropertyOp8
 70
     1
102
RTVSPropertyOp9
 70
     1
102
RTVSPropertyOp10
 70
     1
102
RTVSPropertyOp11
 70
     1
102
RTVSPropertyOp12
 70
     1
102
RTVSPropertyOp13
 70
     1
102
RTVSPropertyOp14
 70
     1
102
RTVSPropertyOp15
 70
     1
102
RTVSPropertyOp16
 70
     1
102
RTVSPropertyOp17
 70
     1
102
RTVSPropertyOp18
 70
     1
102
RTVSPropertyOp19
 70
     1
102
RTVSPropertyOp20
 70
     1
102
RTVSPropertyOp21
 70
     1
102
RTVSPropertyOp22
 70
     1
102
RTVSPropertyOp23
 70
     1
102
RTVSPropertyOp24
 70
     1
102
RTVSPropertyOp25
 70
     1
102
RTVSPropertyOp26
 70
     1
102
RTVSPropertyOp27
 70
     1
102
RTVSPropertyOp28
 70
     1
102
RTVSPropertyOp29
 70
     1
102
RTVSPropertyOp30
 70
     1
102
RTVSPropertyOp31
 70
     1
102
RTVSPropertyOp32
 70
     1
102
RTVSPropertyOp33
 70
     1
102
RTVSPropertyOp34
 70
     1
102
RTVSPropertyOp35
 70
     1
102
RTVSPropertyOp36
 70
     1
102
RTVSPropertyOp37
 70
     1
102
RTVSPropertyOp38
 70
     1
102
RTVSPropertyOp39
 70
     1
102
RTVSPropertyOp40
 70
     1
102
RTVSPropertyOp41
 70
     1
102
RTVSPropertyOp42
 70
     1
102
RTVSPropertyOp43
 70
     1
102
RTVSPropertyOp44
 70
     1
102
RTVSPropertyOp45
 70
     1
102
RTVSPropertyOp46
 70
     1
102
RTVSPropertyOp47
 70
     1
102
RTVSPropertyOp48
 70
     1
102
RTVSPropertyOp49
 70
     1
102
RTVSPropertyOp50
 70
     1
102
RTVSPropertyOp51
 70
     0
102
RTVSPropertyOp52
 70
     0
102
RTVSPropertyOp53
 70
     1
102
RTVSPropertyOp54
 70
     1
102
RTVSPropertyOp55
 70
     1
102
RTVSPropertyOp56
 70
     1
102
RTVSPropertyOp57
 70
     1
102
RTVSPropertyOp58
 70
     1
102
RTVSPropertyOp59
 70
     1
102
RTVSPropertyOp60
 70
     1
102
RTVSPropertyOp61
 70
     1
102
RTVSPropertyOp62
 70
     1
  0
XRECORD
  5
42A
102
{ACAD_REACTORS
330
429
102
}
330
429
100
AcDbXrecord
280
     1
102
RTVSPost2010Prop28
280
     0
102
RTVSPost2010PropOp28
 70
     1
102
RTVSPost2010Prop29
280
     1
102
RTVSPost2010PropOp29
 70
     1
102
RTVSPost2010Prop30
280
     1
102
RTVSPost2010PropOp30
 70
     1
102
RTVSPost2010Prop31
280
     0
102
RTVSPost2010PropOp31
 70
     1
102
RTVSPost2010Prop32
280
     0
102
RTVSPost2010PropOp32
 70
     1
102
RTVSPost2010Prop33
280
     0
102
RTVSPost2010PropOp33
 70
     1
102
RTVSPost2010Prop34
280
     0
102
RTVSPost2010PropOp34
 70
     1
102
RTVSPost2010Prop35
280
     0
102
RTVSPost2010PropOp35
 70
     1
102
RTVSPost2010Prop36
280
     0
102
RTVSPost2010PropOp36
 70
     1
102
RTVSPost2010Prop37
 90
       50
102
RTVSPost2010PropOp37
 70
     1
102
RTVSPost2010Prop38
140
0.0
102
RTVSPost2010PropOp38
 70
     1
102
RTVSPost2010Prop39
140
1.0
102
RTVSPost2010PropOp39
 70
     1
102
RTVSPost2010Prop40
 90
        0
102
RTVSPost2010PropOp40
 70
     1
102
RTVSPost2010Prop41ColorIndex
 90
       18
102
RTVSPost2010Prop41ColorRGB
 90
        0
102
RTVSPost2010PropOp41
 70
     1
102
RTVSPost2010Prop42
 90
       50
102
RTVSPost2010PropOp42
 70
     1
102
RTVSPost2010Prop43
 90
        3
102
RTVSPost2010PropOp43
 70
     1
102
RTVSPost2010Prop44ColorIndex
 90
        5
102
RTVSPost2010Prop44ColorRGB
 90
      255
102
RTVSPost2010PropOp44
 70
     1
102
RTVSPost2010Prop45
280
     0
102
RTVSPost2010PropOp45
 70
     1
102
RTVSPost2010Prop46
 90
       50
102
RTVSPost2010PropOp46
 70
     1
102
RTVSPost2010Prop47
 90
       50
102
RTVSPost2010PropOp47
 70
     1
102
RTVSPost2010Prop48
 90
       50
102
RTVSPost2010PropOp48
 70
     1
102
RTVSPost2010Prop49
280
     0
102
RTVSPost2010PropOp49
 70
     1
102
RTVSPost2010Prop50
 90
       50
102
RTVSPost2010PropOp50
 70
     1
102
RTVSPost2010Prop51ColorIndex
 90
      256
102
RTVSPost2010Prop51ColorRGB
 90
-16777216
102
RTVSPost2010PropOp51
 70
     0
102
RTVSPost2010Prop52
140
1.0
102
RTVSPost2010PropOp52
 70
     0
102
RTVSPost2010Prop53
 90
        2
102
RTVSPost2010PropOp53
 70
     1
102
RTVSPost2010Prop54
  1
strokes_ogs.tif
102
RTVSPost2010PropOp54
 70
     1
102
RTVSPost2010Prop55
280
     0
102
RTVSPost2010PropOp55
 70
     1
102
RTVSPost2010Prop56
140
1.0
102
RTVSPost2010PropOp56
 70
     1
102
RTVSPost2010Prop57
140
1.0
102
RTVSPost2010PropOp57
 70
     1
102
RTVSPropertyOp0
 70
     1
102
RTVSPropertyOp1
 70
     1
102
RTVSPropertyOp2
 70
     1
102
RTVSPropertyOp3
 70
     1
102
RTVSPropertyOp4
 70
     1
102
RTVSPropertyOp5
 70
     1
102
RTVSPropertyOp6
 70
     1
102
RTVSPropertyOp7
 70
     1
102
RTVSPropertyOp8
 70
     1
102
RTVSPropertyOp9
 70
     1
102
RTVSPropertyOp10
 70
     1
102
RTVSPropertyOp11
 70
     1
102
RTVSPropertyOp12
 70
     1
102
RTVSPropertyOp13
 70
     1
102
RTVSPropertyOp14
 70
     1
102
RTVSPropertyOp15
 70
     1
102
RTVSPropertyOp16
 70
     1
102
RTVSPropertyOp17
 70
     1
102
RTVSPropertyOp18
 70
     1
102
RTVSPropertyOp19
 70
     1
102
RTVSPropertyOp20
 70
     1
102
RTVSPropertyOp21
 70
     1
102
RTVSPropertyOp22
 70
     1
102
RTVSPropertyOp23
 70
     1
102
RTVSPropertyOp24
 70
     1
102
RTVSPropertyOp25
 70
     1
102
RTVSPropertyOp26
 70
     1
102
RTVSPropertyOp27
 70
     1
102
RTVSPropertyOp28
 70
     1
102
RTVSPropertyOp29
 70
     1
102
RTVSPropertyOp30
 70
     1
102
RTVSPropertyOp31
 70
     1
102
RTVSPropertyOp32
 70
     1
102
RTVSPropertyOp33
 70
     1
102
RTVSPropertyOp34
 70
     1
102
RTVSPropertyOp35
 70
     1
102
RTVSPropertyOp36
 70
     1
102
RTVSPropertyOp37
 70
     1
102
RTVSPropertyOp38
 70
     1
102
RTVSPropertyOp39
 70
     1
102
RTVSPropertyOp40
 70
     1
102
RTVSPropertyOp41
 70
     1
102
RTVSPropertyOp42
 70
     1
102
RTVSPropertyOp43
 70
     1
102
RTVSPropertyOp44
 70
     1
102
RTVSPropertyOp45
 70
     1
102
RTVSPropertyOp46
 70
     1
102
RTVSPropertyOp47
 70
     1
102
RTVSPropertyOp48
 70
     1
102
RTVSPropertyOp49
 70
     1
102
RTVSPropertyOp50
 70
     1
102
RTVSPropertyOp51
 70
     0
102
RTVSPropertyOp52
 70
     0
102
RTVSPropertyOp53
 70
     1
102
RTVSPropertyOp54
 70
     1
102
RTVSPropertyOp55
 70
     1
102
RTVSPropertyOp56
 70
     1
102
RTVSPropertyOp57
 70
     1
102
RTVSPropertyOp58
 70
     1
102
RTVSPropertyOp59
 70
     1
102
RTVSPropertyOp60
 70
     1
102
RTVSPropertyOp61
 70
     1
102
RTVSPropertyOp62
 70
     1
  0
XRECORD
  5
432
102
{ACAD_REACTORS
330
431
102
}
330
431
100
AcDbXrecord
280
     1
102
RTVSPost2010Prop28
280
     0
102
RTVSPost2010PropOp28
 70
     1
102
RTVSPost2010Prop29
280
     1
102
RTVSPost2010PropOp29
 70
     1
102
RTVSPost2010Prop30
280
     1
102
RTVSPost2010PropOp30
 70
     1
102
RTVSPost2010Prop31
280
     0
102
RTVSPost2010PropOp31
 70
     1
102
RTVSPost2010Prop32
280
     0
102
RTVSPost2010PropOp32
 70
     1
102
RTVSPost2010Prop33
280
     0
102
RTVSPost2010PropOp33
 70
     1
102
RTVSPost2010Prop34
280
     0
102
RTVSPost2010PropOp34
 70
     1
102
RTVSPost2010Prop35
280
     0
102
RTVSPost2010PropOp35
 70
     1
102
RTVSPost2010Prop36
280
     0
102
RTVSPost2010PropOp36
 70
     1
102
RTVSPost2010Prop37
 90
       50
102
RTVSPost2010PropOp37
 70
     1
102
RTVSPost2010Prop38
140
0.0
102
RTVSPost2010PropOp38
 70
     1
102
RTVSPost2010Prop39
140
1.0
102
RTVSPost2010PropOp39
 70
     1
102
RTVSPost2010Prop40
 90
        0
102
RTVSPost2010PropOp40
 70
     1
102
RTVSPost2010Prop41ColorIndex
 90
       18
102
RTVSPost2010Prop41ColorRGB
 90
        0
102
RTVSPost2010PropOp41
 70
     1
102
RTVSPost2010Prop42
 90
       50
102
RTVSPost2010PropOp42
 70
     1
102
RTVSPost2010Prop43
 90
        3
102
RTVSPost2010PropOp43
 70
     1
102
RTVSPost2010Prop44ColorIndex
 90
        5
102
RTVSPost2010Prop44ColorRGB
 90
      255
102
RTVSPost2010PropOp44
 70
     1
102
RTVSPost2010Prop45
280
     0
102
RTVSPost2010PropOp45
 70
     1
102
RTVSPost2010Prop46
 90
       50
102
RTVSPost2010PropOp46
 70
     1
102
RTVSPost2010Prop47
 90
       50
102
RTVSPost2010PropOp47
 70
     1
102
RTVSPost2010Prop48
 90
       50
102
RTVSPost2010PropOp48
 70
     1
102
RTVSPost2010Prop49
280
     0
102
RTVSPost2010PropOp49
 70
     1
102
RTVSPost2010Prop50
 90
       50
102
RTVSPost2010PropOp50
 70
     1
102
RTVSPost2010Prop51ColorIndex
 90
      256
102
RTVSPost2010Prop51ColorRGB
 90
-16777216
102
RTVSPost2010PropOp51
 70
     0
102
RTVSPost2010Prop52
140
1.0
102
RTVSPost2010PropOp52
 70
     0
102
RTVSPost2010Prop53
 90
        2
102
RTVSPost2010PropOp53
 70
     1
102
RTVSPost2010Prop54
  1
strokes_ogs.tif
102
RTVSPost2010PropOp54
 70
     1
102
RTVSPost2010Prop55
280
     0
102
RTVSPost2010PropOp55
 70
     1
102
RTVSPost2010Prop56
140
1.0
102
RTVSPost2010PropOp56
 70
     1
102
RTVSPost2010Prop57
140
1.0
102
RTVSPost2010PropOp57
 70
     1
102
RTVSPropertyOp0
 70
     1
102
RTVSPropertyOp1
 70
     1
102
RTVSPropertyOp2
 70
     1
102
RTVSPropertyOp3
 70
     1
102
RTVSPropertyOp4
 70
     1
102
RTVSPropertyOp5
 70
     1
102
RTVSPropertyOp6
 70
     1
102
RTVSPropertyOp7
 70
     1
102
RTVSPropertyOp8
 70
     1
102
RTVSPropertyOp9
 70
     1
102
RTVSPropertyOp10
 70
     1
102
RTVSPropertyOp11
 70
     1
102
RTVSPropertyOp12
 70
     1
102
RTVSPropertyOp13
 70
     1
102
RTVSPropertyOp14
 70
     1
102
RTVSPropertyOp15
 70
     1
102
RTVSPropertyOp16
 70
     1
102
RTVSPropertyOp17
 70
     1
102
RTVSPropertyOp18
 70
     1
102
RTVSPropertyOp19
 70
     1
102
RTVSPropertyOp20
 70
     1
102
RTVSPropertyOp21
 70
     1
102
RTVSPropertyOp22
 70
     1
102
RTVSPropertyOp23
 70
     1
102
RTVSPropertyOp24
 70
     1
102
RTVSPropertyOp25
 70
     1
102
RTVSPropertyOp26
 70
     1
102
RTVSPropertyOp27
 70
     1
102
RTVSPropertyOp28
 70
     1
102
RTVSPropertyOp29
 70
     1
102
RTVSPropertyOp30
 70
     1
102
RTVSPropertyOp31
 70
     1
102
RTVSPropertyOp32
 70
     1
102
RTVSPropertyOp33
 70
     1
102
RTVSPropertyOp34
 70
     1
102
RTVSPropertyOp35
 70
     1
102
RTVSPropertyOp36
 70
     1
102
RTVSPropertyOp37
 70
     1
102
RTVSPropertyOp38
 70
     1
102
RTVSPropertyOp39
 70
     1
102
RTVSPropertyOp40
 70
     1
102
RTVSPropertyOp41
 70
     1
102
RTVSPropertyOp42
 70
     1
102
RTVSPropertyOp43
 70
     1
102
RTVSPropertyOp44
 70
     1
102
RTVSPropertyOp45
 70
     1
102
RTVSPropertyOp46
 70
     1
102
RTVSPropertyOp47
 70
     1
102
RTVSPropertyOp48
 70
     1
102
RTVSPropertyOp49
 70
     1
102
RTVSPropertyOp50
 70
     1
102
RTVSPropertyOp51
 70
     0
102
RTVSPropertyOp52
 70
     0
102
RTVSPropertyOp53
 70
     1
102
RTVSPropertyOp54
 70
     1
102
RTVSPropertyOp55
 70
     1
102
RTVSPropertyOp56
 70
     1
102
RTVSPropertyOp57
 70
     1
102
RTVSPropertyOp58
 70
     1
102
RTVSPropertyOp59
 70
     1
102
RTVSPropertyOp60
 70
     1
102
RTVSPropertyOp61
 70
     1
102
RTVSPropertyOp62
 70
     1
  0
XRECORD
  5
424
102
{ACAD_REACTORS
330
423
102
}
330
423
100
AcDbXrecord
280
     1
102
RTVSPost2010Prop28
280
     0
102
RTVSPost2010PropOp28
 70
     1
102
RTVSPost2010Prop29
280
     1
102
RTVSPost2010PropOp29
 70
     1
102
RTVSPost2010Prop30
280
     1
102
RTVSPost2010PropOp30
 70
     1
102
RTVSPost2010Prop31
280
     0
102
RTVSPost2010PropOp31
 70
     1
102
RTVSPost2010Prop32
280
     0
102
RTVSPost2010PropOp32
 70
     1
102
RTVSPost2010Prop33
280
     0
102
RTVSPost2010PropOp33
 70
     1
102
RTVSPost2010Prop34
280
     0
102
RTVSPost2010PropOp34
 70
     1
102
RTVSPost2010Prop35
280
     0
102
RTVSPost2010PropOp35
 70
     1
102
RTVSPost2010Prop36
280
     0
102
RTVSPost2010PropOp36
 70
     1
102
RTVSPost2010Prop37
 90
       50
102
RTVSPost2010PropOp37
 70
     1
102
RTVSPost2010Prop38
140
0.0
102
RTVSPost2010PropOp38
 70
     1
102
RTVSPost2010Prop39
140
1.0
102
RTVSPost2010PropOp39
 70
     1
102
RTVSPost2010Prop40
 90
        0
102
RTVSPost2010PropOp40
 70
     1
102
RTVSPost2010Prop41ColorIndex
 90
       18
102
RTVSPost2010Prop41ColorRGB
 90
        0
102
RTVSPost2010PropOp41
 70
     1
102
RTVSPost2010Prop42
 90
       50
102
RTVSPost2010PropOp42
 70
     1
102
RTVSPost2010Prop43
 90
        3
102
RTVSPost2010PropOp43
 70
     1
102
RTVSPost2010Prop44ColorIndex
 90
        5
102
RTVSPost2010Prop44ColorRGB
 90
      255
102
RTVSPost2010PropOp44
 70
     1
102
RTVSPost2010Prop45
280
     0
102
RTVSPost2010PropOp45
 70
     1
102
RTVSPost2010Prop46
 90
       50
102
RTVSPost2010PropOp46
 70
     1
102
RTVSPost2010Prop47
 90
       50
102
RTVSPost2010PropOp47
 70
     1
102
RTVSPost2010Prop48
 90
       50
102
RTVSPost2010PropOp48
 70
     1
102
RTVSPost2010Prop49
280
     0
102
RTVSPost2010PropOp49
 70
     1
102
RTVSPost2010Prop50
 90
       50
102
RTVSPost2010PropOp50
 70
     1
102
RTVSPost2010Prop51ColorIndex
 90
      256
102
RTVSPost2010Prop51ColorRGB
 90
-16777216
102
RTVSPost2010PropOp51
 70
     0
102
RTVSPost2010Prop52
140
1.0
102
RTVSPost2010PropOp52
 70
     0
102
RTVSPost2010Prop53
 90
        2
102
RTVSPost2010PropOp53
 70
     1
102
RTVSPost2010Prop54
  1
strokes_ogs.tif
102
RTVSPost2010PropOp54
 70
     1
102
RTVSPost2010Prop55
280
     0
102
RTVSPost2010PropOp55
 70
     1
102
RTVSPost2010Prop56
140
1.0
102
RTVSPost2010PropOp56
 70
     1
102
RTVSPost2010Prop57
140
1.0
102
RTVSPost2010PropOp57
 70
     1
102
RTVSPropertyOp0
 70
     1
102
RTVSPropertyOp1
 70
     1
102
RTVSPropertyOp2
 70
     1
102
RTVSPropertyOp3
 70
     1
102
RTVSPropertyOp4
 70
     1
102
RTVSPropertyOp5
 70
     1
102
RTVSPropertyOp6
 70
     1
102
RTVSPropertyOp7
 70
     1
102
RTVSPropertyOp8
 70
     1
102
RTVSPropertyOp9
 70
     1
102
RTVSPropertyOp10
 70
     1
102
RTVSPropertyOp11
 70
     1
102
RTVSPropertyOp12
 70
     1
102
RTVSPropertyOp13
 70
     1
102
RTVSPropertyOp14
 70
     1
102
RTVSPropertyOp15
 70
     1
102
RTVSPropertyOp16
 70
     1
102
RTVSPropertyOp17
 70
     1
102
RTVSPropertyOp18
 70
     1
102
RTVSPropertyOp19
 70
     1
102
RTVSPropertyOp20
 70
     1
102
RTVSPropertyOp21
 70
     1
102
RTVSPropertyOp22
 70
     1
102
RTVSPropertyOp23
 70
     1
102
RTVSPropertyOp24
 70
     1
102
RTVSPropertyOp25
 70
     1
102
RTVSPropertyOp26
 70
     1
102
RTVSPropertyOp27
 70
     1
102
RTVSPropertyOp28
 70
     1
102
RTVSPropertyOp29
 70
     1
102
RTVSPropertyOp30
 70
     1
102
RTVSPropertyOp31
 70
     1
102
RTVSPropertyOp32
 70
     1
102
RTVSPropertyOp33
 70
     1
102
RTVSPropertyOp34
 70
     1
102
RTVSPropertyOp35
 70
     1
102
RTVSPropertyOp36
 70
     1
102
RTVSPropertyOp37
 70
     1
102
RTVSPropertyOp38
 70
     1
102
RTVSPropertyOp39
 70
     1
102
RTVSPropertyOp40
 70
     1
102
RTVSPropertyOp41
 70
     1
102
RTVSPropertyOp42
 70
     1
102
RTVSPropertyOp43
 70
     1
102
RTVSPropertyOp44
 70
     1
102
RTVSPropertyOp45
 70
     1
102
RTVSPropertyOp46
 70
     1
102
RTVSPropertyOp47
 70
     1
102
RTVSPropertyOp48
 70
     1
102
RTVSPropertyOp49
 70
     1
102
RTVSPropertyOp50
 70
     1
102
RTVSPropertyOp51
 70
     0
102
RTVSPropertyOp52
 70
     0
102
RTVSPropertyOp53
 70
     1
102
RTVSPropertyOp54
 70
     1
102
RTVSPropertyOp55
 70
     1
102
RTVSPropertyOp56
 70
     1
102
RTVSPropertyOp57
 70
     1
102
RTVSPropertyOp58
 70
     1
102
RTVSPropertyOp59
 70
     1
102
RTVSPropertyOp60
 70
     1
102
RTVSPropertyOp61
 70
     1
102
RTVSPropertyOp62
 70
     1
  0
XRECORD
  5
428
102
{ACAD_REACTORS
330
427
102
}
330
427
100
AcDbXrecord
280
     1
102
RTVSPost2010Prop28
280
     0
102
RTVSPost2010PropOp28
 70
     1
102
RTVSPost2010Prop29
280
     1
102
RTVSPost2010PropOp29
 70
     1
102
RTVSPost2010Prop30
280
     1
102
RTVSPost2010PropOp30
 70
     1
102
RTVSPost2010Prop31
280
     0
102
RTVSPost2010PropOp31
 70
     1
102
RTVSPost2010Prop32
280
     0
102
RTVSPost2010PropOp32
 70
     1
102
RTVSPost2010Prop33
280
     0
102
RTVSPost2010PropOp33
 70
     1
102
RTVSPost2010Prop34
280
     0
102
RTVSPost2010PropOp34
 70
     1
102
RTVSPost2010Prop35
280
     0
102
RTVSPost2010PropOp35
 70
     1
102
RTVSPost2010Prop36
280
     0
102
RTVSPost2010PropOp36
 70
     1
102
RTVSPost2010Prop37
 90
       50
102
RTVSPost2010PropOp37
 70
     1
102
RTVSPost2010Prop38
140
0.0
102
RTVSPost2010PropOp38
 70
     1
102
RTVSPost2010Prop39
140
1.0
102
RTVSPost2010PropOp39
 70
     1
102
RTVSPost2010Prop40
 90
        0
102
RTVSPost2010PropOp40
 70
     1
102
RTVSPost2010Prop41ColorIndex
 90
       18
102
RTVSPost2010Prop41ColorRGB
 90
        0
102
RTVSPost2010PropOp41
 70
     1
102
RTVSPost2010Prop42
 90
       50
102
RTVSPost2010PropOp42
 70
     1
102
RTVSPost2010Prop43
 90
        3
102
RTVSPost2010PropOp43
 70
     1
102
RTVSPost2010Prop44ColorIndex
 90
        5
102
RTVSPost2010Prop44ColorRGB
 90
      255
102
RTVSPost2010PropOp44
 70
     1
102
RTVSPost2010Prop45
280
     0
102
RTVSPost2010PropOp45
 70
     1
102
RTVSPost2010Prop46
 90
       50
102
RTVSPost2010PropOp46
 70
     1
102
RTVSPost2010Prop47
 90
       50
102
RTVSPost2010PropOp47
 70
     1
102
RTVSPost2010Prop48
 90
       50
102
RTVSPost2010PropOp48
 70
     1
102
RTVSPost2010Prop49
280
     0
102
RTVSPost2010PropOp49
 70
     1
102
RTVSPost2010Prop50
 90
       50
102
RTVSPost2010PropOp50
 70
     1
102
RTVSPost2010Prop51ColorIndex
 90
      256
102
RTVSPost2010Prop51ColorRGB
 90
-16777216
102
RTVSPost2010PropOp51
 70
     0
102
RTVSPost2010Prop52
140
1.0
102
RTVSPost2010PropOp52
 70
     0
102
RTVSPost2010Prop53
 90
        2
102
RTVSPost2010PropOp53
 70
     1
102
RTVSPost2010Prop54
  1
strokes_ogs.tif
102
RTVSPost2010PropOp54
 70
     1
102
RTVSPost2010Prop55
280
     0
102
RTVSPost2010PropOp55
 70
     1
102
RTVSPost2010Prop56
140
1.0
102
RTVSPost2010PropOp56
 70
     1
102
RTVSPost2010Prop57
140
1.0
102
RTVSPost2010PropOp57
 70
     1
102
RTVSPropertyOp0
 70
     1
102
RTVSPropertyOp1
 70
     1
102
RTVSPropertyOp2
 70
     1
102
RTVSPropertyOp3
 70
     1
102
RTVSPropertyOp4
 70
     1
102
RTVSPropertyOp5
 70
     1
102
RTVSPropertyOp6
 70
     1
102
RTVSPropertyOp7
 70
     1
102
RTVSPropertyOp8
 70
     1
102
RTVSPropertyOp9
 70
     1
102
RTVSPropertyOp10
 70
     1
102
RTVSPropertyOp11
 70
     1
102
RTVSPropertyOp12
 70
     1
102
RTVSPropertyOp13
 70
     1
102
RTVSPropertyOp14
 70
     1
102
RTVSPropertyOp15
 70
     1
102
RTVSPropertyOp16
 70
     1
102
RTVSPropertyOp17
 70
     1
102
RTVSPropertyOp18
 70
     1
102
RTVSPropertyOp19
 70
     1
102
RTVSPropertyOp20
 70
     1
102
RTVSPropertyOp21
 70
     1
102
RTVSPropertyOp22
 70
     1
102
RTVSPropertyOp23
 70
     1
102
RTVSPropertyOp24
 70
     1
102
RTVSPropertyOp25
 70
     1
102
RTVSPropertyOp26
 70
     1
102
RTVSPropertyOp27
 70
     1
102
RTVSPropertyOp28
 70
     1
102
RTVSPropertyOp29
 70
     1
102
RTVSPropertyOp30
 70
     1
102
RTVSPropertyOp31
 70
     1
102
RTVSPropertyOp32
 70
     1
102
RTVSPropertyOp33
 70
     1
102
RTVSPropertyOp34
 70
     1
102
RTVSPropertyOp35
 70
     1
102
RTVSPropertyOp36
 70
     1
102
RTVSPropertyOp37
 70
     1
102
RTVSPropertyOp38
 70
     1
102
RTVSPropertyOp39
 70
     1
102
RTVSPropertyOp40
 70
     1
102
RTVSPropertyOp41
 70
     1
102
RTVSPropertyOp42
 70
     1
102
RTVSPropertyOp43
 70
     1
102
RTVSPropertyOp44
 70
     1
102
RTVSPropertyOp45
 70
     1
102
RTVSPropertyOp46
 70
     1
102
RTVSPropertyOp47
 70
     1
102
RTVSPropertyOp48
 70
     1
102
RTVSPropertyOp49
 70
     1
102
RTVSPropertyOp50
 70
     1
102
RTVSPropertyOp51
 70
     0
102
RTVSPropertyOp52
 70
     0
102
RTVSPropertyOp53
 70
     1
102
RTVSPropertyOp54
 70
     1
102
RTVSPropertyOp55
 70
     1
102
RTVSPropertyOp56
 70
     1
102
RTVSPropertyOp57
 70
     1
102
RTVSPropertyOp58
 70
     1
102
RTVSPropertyOp59
 70
     1
102
RTVSPropertyOp60
 70
     1
102
RTVSPropertyOp61
 70
     1
102
RTVSPropertyOp62
 70
     1
  0
XRECORD
  5
438
102
{ACAD_REACTORS
330
437
102
}
330
437
100
AcDbXrecord
280
     1
102
RTVSPost2010Prop28
280
     0
102
RTVSPost2010PropOp28
 70
     1
102
RTVSPost2010Prop29
280
     1
102
RTVSPost2010PropOp29
 70
     1
102
RTVSPost2010Prop30
280
     1
102
RTVSPost2010PropOp30
 70
     1
102
RTVSPost2010Prop31
280
     0
102
RTVSPost2010PropOp31
 70
     1
102
RTVSPost2010Prop32
280
     0
102
RTVSPost2010PropOp32
 70
     1
102
RTVSPost2010Prop33
280
     0
102
RTVSPost2010PropOp33
 70
     1
102
RTVSPost2010Prop34
280
     0
102
RTVSPost2010PropOp34
 70
     1
102
RTVSPost2010Prop35
280
     0
102
RTVSPost2010PropOp35
 70
     1
102
RTVSPost2010Prop36
280
     0
102
RTVSPost2010PropOp36
 70
     1
102
RTVSPost2010Prop37
 90
       50
102
RTVSPost2010PropOp37
 70
     1
102
RTVSPost2010Prop38
140
0.0
102
RTVSPost2010PropOp38
 70
     1
102
RTVSPost2010Prop39
140
1.0
102
RTVSPost2010PropOp39
 70
     1
102
RTVSPost2010Prop40
 90
        0
102
RTVSPost2010PropOp40
 70
     1
102
RTVSPost2010Prop41ColorIndex
 90
       18
102
RTVSPost2010Prop41ColorRGB
 90
        0
102
RTVSPost2010PropOp41
 70
     1
102
RTVSPost2010Prop42
 90
       50
102
RTVSPost2010PropOp42
 70
     1
102
RTVSPost2010Prop43
 90
        3
102
RTVSPost2010PropOp43
 70
     1
102
RTVSPost2010Prop44ColorIndex
 90
        5
102
RTVSPost2010Prop44ColorRGB
 90
      255
102
RTVSPost2010PropOp44
 70
     1
102
RTVSPost2010Prop45
280
     0
102
RTVSPost2010PropOp45
 70
     1
102
RTVSPost2010Prop46
 90
       50
102
RTVSPost2010PropOp46
 70
     1
102
RTVSPost2010Prop47
 90
       50
102
RTVSPost2010PropOp47
 70
     1
102
RTVSPost2010Prop48
 90
       50
102
RTVSPost2010PropOp48
 70
     1
102
RTVSPost2010Prop49
280
     0
102
RTVSPost2010PropOp49
 70
     1
102
RTVSPost2010Prop50
 90
       50
102
RTVSPost2010PropOp50
 70
     1
102
RTVSPost2010Prop51ColorIndex
 90
      256
102
RTVSPost2010Prop51ColorRGB
 90
-16777216
102
RTVSPost2010PropOp51
 70
     0
102
RTVSPost2010Prop52
140
1.0
102
RTVSPost2010PropOp52
 70
     0
102
RTVSPost2010Prop53
 90
        2
102
RTVSPost2010PropOp53
 70
     1
102
RTVSPost2010Prop54
  1
strokes_ogs.tif
102
RTVSPost2010PropOp54
 70
     1
102
RTVSPost2010Prop55
280
     0
102
RTVSPost2010PropOp55
 70
     1
102
RTVSPost2010Prop56
140
1.0
102
RTVSPost2010PropOp56
 70
     1
102
RTVSPost2010Prop57
140
1.0
102
RTVSPost2010PropOp57
 70
     1
102
RTVSPropertyOp0
 70
     0
102
RTVSPropertyOp1
 70
     0
102
RTVSPropertyOp2
 70
     0
102
RTVSPropertyOp3
 70
     0
102
RTVSPropertyOp4
 70
     0
102
RTVSPropertyOp5
 70
     0
102
RTVSPropertyOp6
 70
     0
102
RTVSPropertyOp7
 70
     0
102
RTVSPropertyOp8
 70
     0
102
RTVSPropertyOp9
 70
     0
102
RTVSPropertyOp10
 70
     0
102
RTVSPropertyOp11
 70
     0
102
RTVSPropertyOp12
 70
     0
102
RTVSPropertyOp13
 70
     0
102
RTVSPropertyOp14
 70
     2
102
RTVSPropertyOp15
 70
     0
102
RTVSPropertyOp16
 70
     0
102
RTVSPropertyOp17
 70
     0
102
RTVSPropertyOp18
 70
     0
102
RTVSPropertyOp19
 70
     0
102
RTVSPropertyOp20
 70
     0
102
RTVSPropertyOp21
 70
     0
102
RTVSPropertyOp22
 70
     0
102
RTVSPropertyOp23
 70
     0
102
RTVSPropertyOp24
 70
     0
102
RTVSPropertyOp25
 70
     0
102
RTVSPropertyOp26
 70
     0
102
RTVSPropertyOp27
 70
     0
102
RTVSPropertyOp28
 70
     1
102
RTVSPropertyOp29
 70
     1
102
RTVSPropertyOp30
 70
     1
102
RTVSPropertyOp31
 70
     1
102
RTVSPropertyOp32
 70
     1
102
RTVSPropertyOp33
 70
     1
102
RTVSPropertyOp34
 70
     1
102
RTVSPropertyOp35
 70
     1
102
RTVSPropertyOp36
 70
     1
102
RTVSPropertyOp37
 70
     1
102
RTVSPropertyOp38
 70
     1
102
RTVSPropertyOp39
 70
     1
102
RTVSPropertyOp40
 70
     1
102
RTVSPropertyOp41
 70
     1
102
RTVSPropertyOp42
 70
     1
102
RTVSPropertyOp43
 70
     1
102
RTVSPropertyOp44
 70
     1
102
RTVSPropertyOp45
 70
     1
102
RTVSPropertyOp46
 70
     1
102
RTVSPropertyOp47
 70
     1
102
RTVSPropertyOp48
 70
     1
102
RTVSPropertyOp49
 70
     1
102
RTVSPropertyOp50
 70
     1
102
RTVSPropertyOp51
 70
     0
102
RTVSPropertyOp52
 70
     0
102
RTVSPropertyOp53
 70
     1
102
RTVSPropertyOp54
 70
     1
102
RTVSPropertyOp55
 70
     1
102
RTVSPropertyOp56
 70
     1
102
RTVSPropertyOp57
 70
     1
102
RTVSPropertyOp58
 70
     1
102
RTVSPropertyOp59
 70
     1
102
RTVSPropertyOp60
 70
     1
102
RTVSPropertyOp61
 70
     1
102
RTVSPropertyOp62
 70
     1
  0
XRECORD
  5
430
102
{ACAD_REACTORS
330
42F
102
}
330
42F
100
AcDbXrecord
280
     1
102
RTVSPost2010Prop28
280
     0
102
RTVSPost2010PropOp28
 70
     1
102
RTVSPost2010Prop29
280
     1
102
RTVSPost2010PropOp29
 70
     1
102
RTVSPost2010Prop30
280
     1
102
RTVSPost2010PropOp30
 70
     1
102
RTVSPost2010Prop31
280
     0
102
RTVSPost2010PropOp31
 70
     1
102
RTVSPost2010Prop32
280
     0
102
RTVSPost2010PropOp32
 70
     1
102
RTVSPost2010Prop33
280
     0
102
RTVSPost2010PropOp33
 70
     1
102
RTVSPost2010Prop34
280
     0
102
RTVSPost2010PropOp34
 70
     1
102
RTVSPost2010Prop35
280
     0
102
RTVSPost2010PropOp35
 70
     1
102
RTVSPost2010Prop36
280
     0
102
RTVSPost2010PropOp36
 70
     1
102
RTVSPost2010Prop37
 90
       50
102
RTVSPost2010PropOp37
 70
     1
102
RTVSPost2010Prop38
140
0.0
102
RTVSPost2010PropOp38
 70
     1
102
RTVSPost2010Prop39
140
1.0
102
RTVSPost2010PropOp39
 70
     1
102
RTVSPost2010Prop40
 90
        0
102
RTVSPost2010PropOp40
 70
     1
102
RTVSPost2010Prop41ColorIndex
 90
       18
102
RTVSPost2010Prop41ColorRGB
 90
        0
102
RTVSPost2010PropOp41
 70
     1
102
RTVSPost2010Prop42
 90
       50
102
RTVSPost2010PropOp42
 70
     1
102
RTVSPost2010Prop43
 90
        3
102
RTVSPost2010PropOp43
 70
     1
102
RTVSPost2010Prop44ColorIndex
 90
        5
102
RTVSPost2010Prop44ColorRGB
 90
      255
102
RTVSPost2010PropOp44
 70
     1
102
RTVSPost2010Prop45
280
     0
102
RTVSPost2010PropOp45
 70
     1
102
RTVSPost2010Prop46
 90
       50
102
RTVSPost2010PropOp46
 70
     1
102
RTVSPost2010Prop47
 90
       50
102
RTVSPost2010PropOp47
 70
     1
102
RTVSPost2010Prop48
 90
       50
102
RTVSPost2010PropOp48
 70
     1
102
RTVSPost2010Prop49
280
     0
102
RTVSPost2010PropOp49
 70
     1
102
RTVSPost2010Prop50
 90
       50
102
RTVSPost2010PropOp50
 70
     1
102
RTVSPost2010Prop51ColorIndex
 90
      256
102
RTVSPost2010Prop51ColorRGB
 90
-16777216
102
RTVSPost2010PropOp51
 70
     0
102
RTVSPost2010Prop52
140
1.0
102
RTVSPost2010PropOp52
 70
     0
102
RTVSPost2010Prop53
 90
        2
102
RTVSPost2010PropOp53
 70
     1
102
RTVSPost2010Prop54
  1
strokes_ogs.tif
102
RTVSPost2010PropOp54
 70
     1
102
RTVSPost2010Prop55
280
     0
102
RTVSPost2010PropOp55
 70
     1
102
RTVSPost2010Prop56
140
1.0
102
RTVSPost2010PropOp56
 70
     1
102
RTVSPost2010Prop57
140
1.0
102
RTVSPost2010PropOp57
 70
     1
102
RTVSPropertyOp0
 70
     1
102
RTVSPropertyOp1
 70
     1
102
RTVSPropertyOp2
 70
     1
102
RTVSPropertyOp3
 70
     1
102
RTVSPropertyOp4
 70
     1
102
RTVSPropertyOp5
 70
     1
102
RTVSPropertyOp6
 70
     1
102
RTVSPropertyOp7
 70
     1
102
RTVSPropertyOp8
 70
     1
102
RTVSPropertyOp9
 70
     1
102
RTVSPropertyOp10
 70
     1
102
RTVSPropertyOp11
 70
     1
102
RTVSPropertyOp12
 70
     1
102
RTVSPropertyOp13
 70
     1
102
RTVSPropertyOp14
 70
     1
102
RTVSPropertyOp15
 70
     1
102
RTVSPropertyOp16
 70
     1
102
RTVSPropertyOp17
 70
     1
102
RTVSPropertyOp18
 70
     1
102
RTVSPropertyOp19
 70
     1
102
RTVSPropertyOp20
 70
     1
102
RTVSPropertyOp21
 70
     1
102
RTVSPropertyOp22
 70
     1
102
RTVSPropertyOp23
 70
     1
102
RTVSPropertyOp24
 70
     1
102
RTVSPropertyOp25
 70
     1
102
RTVSPropertyOp26
 70
     1
102
RTVSPropertyOp27
 70
     1
102
RTVSPropertyOp28
 70
     1
102
RTVSPropertyOp29
 70
     1
102
RTVSPropertyOp30
 70
     1
102
RTVSPropertyOp31
 70
     1
102
RTVSPropertyOp32
 70
     1
102
RTVSPropertyOp33
 70
     1
102
RTVSPropertyOp34
 70
     1
102
RTVSPropertyOp35
 70
     1
102
RTVSPropertyOp36
 70
     1
102
RTVSPropertyOp37
 70
     1
102
RTVSPropertyOp38
 70
     1
102
RTVSPropertyOp39
 70
     1
102
RTVSPropertyOp40
 70
     1
102
RTVSPropertyOp41
 70
     1
102
RTVSPropertyOp42
 70
     1
102
RTVSPropertyOp43
 70
     1
102
RTVSPropertyOp44
 70
     1
102
RTVSPropertyOp45
 70
     1
102
RTVSPropertyOp46
 70
     1
102
RTVSPropertyOp47
 70
     1
102
RTVSPropertyOp48
 70
     1
102
RTVSPropertyOp49
 70
     1
102
RTVSPropertyOp50
 70
     1
102
RTVSPropertyOp51
 70
     0
102
RTVSPropertyOp52
 70
     0
102
RTVSPropertyOp53
 70
     1
102
RTVSPropertyOp54
 70
     1
102
RTVSPropertyOp55
 70
     1
102
RTVSPropertyOp56
 70
     1
102
RTVSPropertyOp57
 70
     1
102
RTVSPropertyOp58
 70
     1
102
RTVSPropertyOp59
 70
     1
102
RTVSPropertyOp60
 70
     1
102
RTVSPropertyOp61
 70
     1
102
RTVSPropertyOp62
 70
     1
  0
XRECORD
  5
414
102
{ACAD_REACTORS
330
413
102
}
330
413
100
AcDbXrecord
280
     1
102
RTVSPost2010Prop28
280
     0
102
RTVSPost2010PropOp28
 70
     1
102
RTVSPost2010Prop29
280
     1
102
RTVSPost2010PropOp29
 70
     1
102
RTVSPost2010Prop30
280
     1
102
RTVSPost2010PropOp30
 70
     1
102
RTVSPost2010Prop31
280
     0
102
RTVSPost2010PropOp31
 70
     1
102
RTVSPost2010Prop32
280
     0
102
RTVSPost2010PropOp32
 70
     1
102
RTVSPost2010Prop33
280
     0
102
RTVSPost2010PropOp33
 70
     1
102
RTVSPost2010Prop34
280
     0
102
RTVSPost2010PropOp34
 70
     1
102
RTVSPost2010Prop35
280
     0
102
RTVSPost2010PropOp35
 70
     1
102
RTVSPost2010Prop36
280
     0
102
RTVSPost2010PropOp36
 70
     1
102
RTVSPost2010Prop37
 90
       50
102
RTVSPost2010PropOp37
 70
     1
102
RTVSPost2010Prop38
140
0.0
102
RTVSPost2010PropOp38
 70
     1
102
RTVSPost2010Prop39
140
1.0
102
RTVSPost2010PropOp39
 70
     1
102
RTVSPost2010Prop40
 90
        0
102
RTVSPost2010PropOp40
 70
     1
102
RTVSPost2010Prop41ColorIndex
 90
       18
102
RTVSPost2010Prop41ColorRGB
 90
        0
102
RTVSPost2010PropOp41
 70
     1
102
RTVSPost2010Prop42
 90
       50
102
RTVSPost2010PropOp42
 70
     1
102
RTVSPost2010Prop43
 90
        3
102
RTVSPost2010PropOp43
 70
     1
102
RTVSPost2010Prop44ColorIndex
 90
        5
102
RTVSPost2010Prop44ColorRGB
 90
      255
102
RTVSPost2010PropOp44
 70
     1
102
RTVSPost2010Prop45
280
     0
102
RTVSPost2010PropOp45
 70
     1
102
RTVSPost2010Prop46
 90
       50
102
RTVSPost2010PropOp46
 70
     1
102
RTVSPost2010Prop47
 90
       50
102
RTVSPost2010PropOp47
 70
     1
102
RTVSPost2010Prop48
 90
       50
102
RTVSPost2010PropOp48
 70
     1
102
RTVSPost2010Prop49
280
     0
102
RTVSPost2010PropOp49
 70
     1
102
RTVSPost2010Prop50
 90
       50
102
RTVSPost2010PropOp50
 70
     1
102
RTVSPost2010Prop51ColorIndex
 90
      256
102
RTVSPost2010Prop51ColorRGB
 90
-16777216
102
RTVSPost2010PropOp51
 70
     0
102
RTVSPost2010Prop52
140
1.0
102
RTVSPost2010PropOp52
 70
     0
102
RTVSPost2010Prop53
 90
        2
102
RTVSPost2010PropOp53
 70
     1
102
RTVSPost2010Prop54
  1
strokes_ogs.tif
102
RTVSPost2010PropOp54
 70
     1
102
RTVSPost2010Prop55
280
     0
102
RTVSPost2010PropOp55
 70
     1
102
RTVSPost2010Prop56
140
1.0
102
RTVSPost2010PropOp56
 70
     1
102
RTVSPost2010Prop57
140
1.0
102
RTVSPost2010PropOp57
 70
     1
102
RTVSPropertyOp0
 70
     1
102
RTVSPropertyOp1
 70
     1
102
RTVSPropertyOp2
 70
     1
102
RTVSPropertyOp3
 70
     1
102
RTVSPropertyOp4
 70
     1
102
RTVSPropertyOp5
 70
     1
102
RTVSPropertyOp6
 70
     1
102
RTVSPropertyOp7
 70
     1
102
RTVSPropertyOp8
 70
     1
102
RTVSPropertyOp9
 70
     1
102
RTVSPropertyOp10
 70
     1
102
RTVSPropertyOp11
 70
     1
102
RTVSPropertyOp12
 70
     1
102
RTVSPropertyOp13
 70
     1
102
RTVSPropertyOp14
 70
     1
102
RTVSPropertyOp15
 70
     1
102
RTVSPropertyOp16
 70
     1
102
RTVSPropertyOp17
 70
     1
102
RTVSPropertyOp18
 70
     1
102
RTVSPropertyOp19
 70
     1
102
RTVSPropertyOp20
 70
     1
102
RTVSPropertyOp21
 70
     1
102
RTVSPropertyOp22
 70
     1
102
RTVSPropertyOp23
 70
     1
102
RTVSPropertyOp24
 70
     1
102
RTVSPropertyOp25
 70
     1
102
RTVSPropertyOp26
 70
     1
102
RTVSPropertyOp27
 70
     1
102
RTVSPropertyOp28
 70
     1
102
RTVSPropertyOp29
 70
     1
102
RTVSPropertyOp30
 70
     1
102
RTVSPropertyOp31
 70
     1
102
RTVSPropertyOp32
 70
     1
102
RTVSPropertyOp33
 70
     1
102
RTVSPropertyOp34
 70
     1
102
RTVSPropertyOp35
 70
     1
102
RTVSPropertyOp36
 70
     1
102
RTVSPropertyOp37
 70
     1
102
RTVSPropertyOp38
 70
     1
102
RTVSPropertyOp39
 70
     1
102
RTVSPropertyOp40
 70
     1
102
RTVSPropertyOp41
 70
     1
102
RTVSPropertyOp42
 70
     1
102
RTVSPropertyOp43
 70
     1
102
RTVSPropertyOp44
 70
     1
102
RTVSPropertyOp45
 70
     1
102
RTVSPropertyOp46
 70
     1
102
RTVSPropertyOp47
 70
     1
102
RTVSPropertyOp48
 70
     1
102
RTVSPropertyOp49
 70
     1
102
RTVSPropertyOp50
 70
     1
102
RTVSPropertyOp51
 70
     0
102
RTVSPropertyOp52
 70
     0
102
RTVSPropertyOp53
 70
     1
102
RTVSPropertyOp54
 70
     1
102
RTVSPropertyOp55
 70
     1
102
RTVSPropertyOp56
 70
     1
102
RTVSPropertyOp57
 70
     1
102
RTVSPropertyOp58
 70
     1
102
RTVSPropertyOp59
 70
     1
102
RTVSPropertyOp60
 70
     1
102
RTVSPropertyOp61
 70
     1
102
RTVSPropertyOp62
 70
     1
  0
XRECORD
  5
416
102
{ACAD_REACTORS
330
415
102
}
330
415
100
AcDbXrecord
280
     1
102
RTVSPost2010Prop28
280
     0
102
RTVSPost2010PropOp28
 70
     1
102
RTVSPost2010Prop29
280
     1
102
RTVSPost2010PropOp29
 70
     1
102
RTVSPost2010Prop30
280
     1
102
RTVSPost2010PropOp30
 70
     1
102
RTVSPost2010Prop31
280
     0
102
RTVSPost2010PropOp31
 70
     1
102
RTVSPost2010Prop32
280
     0
102
RTVSPost2010PropOp32
 70
     1
102
RTVSPost2010Prop33
280
     0
102
RTVSPost2010PropOp33
 70
     1
102
RTVSPost2010Prop34
280
     0
102
RTVSPost2010PropOp34
 70
     1
102
RTVSPost2010Prop35
280
     0
102
RTVSPost2010PropOp35
 70
     1
102
RTVSPost2010Prop36
280
     0
102
RTVSPost2010PropOp36
 70
     1
102
RTVSPost2010Prop37
 90
       50
102
RTVSPost2010PropOp37
 70
     1
102
RTVSPost2010Prop38
140
0.0
102
RTVSPost2010PropOp38
 70
     1
102
RTVSPost2010Prop39
140
1.0
102
RTVSPost2010PropOp39
 70
     1
102
RTVSPost2010Prop40
 90
        0
102
RTVSPost2010PropOp40
 70
     1
102
RTVSPost2010Prop41ColorIndex
 90
       18
102
RTVSPost2010Prop41ColorRGB
 90
        0
102
RTVSPost2010PropOp41
 70
     1
102
RTVSPost2010Prop42
 90
       50
102
RTVSPost2010PropOp42
 70
     1
102
RTVSPost2010Prop43
 90
        3
102
RTVSPost2010PropOp43
 70
     1
102
RTVSPost2010Prop44ColorIndex
 90
        5
102
RTVSPost2010Prop44ColorRGB
 90
      255
102
RTVSPost2010PropOp44
 70
     1
102
RTVSPost2010Prop45
280
     0
102
RTVSPost2010PropOp45
 70
     1
102
RTVSPost2010Prop46
 90
       50
102
RTVSPost2010PropOp46
 70
     1
102
RTVSPost2010Prop47
 90
       50
102
RTVSPost2010PropOp47
 70
     1
102
RTVSPost2010Prop48
 90
       50
102
RTVSPost2010PropOp48
 70
     1
102
RTVSPost2010Prop49
280
     0
102
RTVSPost2010PropOp49
 70
     1
102
RTVSPost2010Prop50
 90
       50
102
RTVSPost2010PropOp50
 70
     1
102
RTVSPost2010Prop51ColorIndex
 90
      256
102
RTVSPost2010Prop51ColorRGB
 90
-16777216
102
RTVSPost2010PropOp51
 70
     0
102
RTVSPost2010Prop52
140
1.0
102
RTVSPost2010PropOp52
 70
     0
102
RTVSPost2010Prop53
 90
        2
102
RTVSPost2010PropOp53
 70
     1
102
RTVSPost2010Prop54
  1
strokes_ogs.tif
102
RTVSPost2010PropOp54
 70
     1
102
RTVSPost2010Prop55
280
     0
102
RTVSPost2010PropOp55
 70
     1
102
RTVSPost2010Prop56
140
1.0
102
RTVSPost2010PropOp56
 70
     1
102
RTVSPost2010Prop57
140
1.0
102
RTVSPost2010PropOp57
 70
     1
102
RTVSPropertyOp0
 70
     1
102
RTVSPropertyOp1
 70
     1
102
RTVSPropertyOp2
 70
     1
102
RTVSPropertyOp3
 70
     1
102
RTVSPropertyOp4
 70
     1
102
RTVSPropertyOp5
 70
     1
102
RTVSPropertyOp6
 70
     1
102
RTVSPropertyOp7
 70
     1
102
RTVSPropertyOp8
 70
     1
102
RTVSPropertyOp9
 70
     1
102
RTVSPropertyOp10
 70
     1
102
RTVSPropertyOp11
 70
     1
102
RTVSPropertyOp12
 70
     1
102
RTVSPropertyOp13
 70
     1
102
RTVSPropertyOp14
 70
     1
102
RTVSPropertyOp15
 70
     1
102
RTVSPropertyOp16
 70
     1
102
RTVSPropertyOp17
 70
     1
102
RTVSPropertyOp18
 70
     1
102
RTVSPropertyOp19
 70
     1
102
RTVSPropertyOp20
 70
     1
102
RTVSPropertyOp21
 70
     1
102
RTVSPropertyOp22
 70
     1
102
RTVSPropertyOp23
 70
     1
102
RTVSPropertyOp24
 70
     1
102
RTVSPropertyOp25
 70
     1
102
RTVSPropertyOp26
 70
     1
102
RTVSPropertyOp27
 70
     1
102
RTVSPropertyOp28
 70
     1
102
RTVSPropertyOp29
 70
     1
102
RTVSPropertyOp30
 70
     1
102
RTVSPropertyOp31
 70
     1
102
RTVSPropertyOp32
 70
     1
102
RTVSPropertyOp33
 70
     1
102
RTVSPropertyOp34
 70
     1
102
RTVSPropertyOp35
 70
     1
102
RTVSPropertyOp36
 70
     1
102
RTVSPropertyOp37
 70
     1
102
RTVSPropertyOp38
 70
     1
102
RTVSPropertyOp39
 70
     1
102
RTVSPropertyOp40
 70
     1
102
RTVSPropertyOp41
 70
     1
102
RTVSPropertyOp42
 70
     1
102
RTVSPropertyOp43
 70
     1
102
RTVSPropertyOp44
 70
     1
102
RTVSPropertyOp45
 70
     1
102
RTVSPropertyOp46
 70
     1
102
RTVSPropertyOp47
 70
     1
102
RTVSPropertyOp48
 70
     1
102
RTVSPropertyOp49
 70
     1
102
RTVSPropertyOp50
 70
     1
102
RTVSPropertyOp51
 70
     0
102
RTVSPropertyOp52
 70
     0
102
RTVSPropertyOp53
 70
     1
102
RTVSPropertyOp54
 70
     1
102
RTVSPropertyOp55
 70
     1
102
RTVSPropertyOp56
 70
     1
102
RTVSPropertyOp57
 70
     1
102
RTVSPropertyOp58
 70
     1
102
RTVSPropertyOp59
 70
     1
102
RTVSPropertyOp60
 70
     1
102
RTVSPropertyOp61
 70
     1
102
RTVSPropertyOp62
 70
     1
  0
XRECORD
  5
418
102
{ACAD_REACTORS
330
417
102
}
330
417
100
AcDbXrecord
280
     1
102
RTVSPost2010Prop28
280
     0
102
RTVSPost2010PropOp28
 70
     1
102
RTVSPost2010Prop29
280
     1
102
RTVSPost2010PropOp29
 70
     1
102
RTVSPost2010Prop30
280
     1
102
RTVSPost2010PropOp30
 70
     1
102
RTVSPost2010Prop31
280
     0
102
RTVSPost2010PropOp31
 70
     1
102
RTVSPost2010Prop32
280
     0
102
RTVSPost2010PropOp32
 70
     1
102
RTVSPost2010Prop33
280
     0
102
RTVSPost2010PropOp33
 70
     1
102
RTVSPost2010Prop34
280
     0
102
RTVSPost2010PropOp34
 70
     1
102
RTVSPost2010Prop35
280
     0
102
RTVSPost2010PropOp35
 70
     1
102
RTVSPost2010Prop36
280
     0
102
RTVSPost2010PropOp36
 70
     1
102
RTVSPost2010Prop37
 90
       50
102
RTVSPost2010PropOp37
 70
     1
102
RTVSPost2010Prop38
140
0.0
102
RTVSPost2010PropOp38
 70
     1
102
RTVSPost2010Prop39
140
1.0
102
RTVSPost2010PropOp39
 70
     1
102
RTVSPost2010Prop40
 90
        0
102
RTVSPost2010PropOp40
 70
     1
102
RTVSPost2010Prop41ColorIndex
 90
       18
102
RTVSPost2010Prop41ColorRGB
 90
        0
102
RTVSPost2010PropOp41
 70
     1
102
RTVSPost2010Prop42
 90
       50
102
RTVSPost2010PropOp42
 70
     1
102
RTVSPost2010Prop43
 90
        3
102
RTVSPost2010PropOp43
 70
     1
102
RTVSPost2010Prop44ColorIndex
 90
        5
102
RTVSPost2010Prop44ColorRGB
 90
      255
102
RTVSPost2010PropOp44
 70
     1
102
RTVSPost2010Prop45
280
     0
102
RTVSPost2010PropOp45
 70
     1
102
RTVSPost2010Prop46
 90
       50
102
RTVSPost2010PropOp46
 70
     1
102
RTVSPost2010Prop47
 90
       50
102
RTVSPost2010PropOp47
 70
     1
102
RTVSPost2010Prop48
 90
       50
102
RTVSPost2010PropOp48
 70
     1
102
RTVSPost2010Prop49
280
     0
102
RTVSPost2010PropOp49
 70
     1
102
RTVSPost2010Prop50
 90
       50
102
RTVSPost2010PropOp50
 70
     1
102
RTVSPost2010Prop51ColorIndex
 90
      256
102
RTVSPost2010Prop51ColorRGB
 90
-16777216
102
RTVSPost2010PropOp51
 70
     0
102
RTVSPost2010Prop52
140
1.0
102
RTVSPost2010PropOp52
 70
     0
102
RTVSPost2010Prop53
 90
        2
102
RTVSPost2010PropOp53
 70
     1
102
RTVSPost2010Prop54
  1
strokes_ogs.tif
102
RTVSPost2010PropOp54
 70
     1
102
RTVSPost2010Prop55
280
     0
102
RTVSPost2010PropOp55
 70
     1
102
RTVSPost2010Prop56
140
1.0
102
RTVSPost2010PropOp56
 70
     1
102
RTVSPost2010Prop57
140
1.0
102
RTVSPost2010PropOp57
 70
     1
102
RTVSPropertyOp0
 70
     1
102
RTVSPropertyOp1
 70
     1
102
RTVSPropertyOp2
 70
     1
102
RTVSPropertyOp3
 70
     1
102
RTVSPropertyOp4
 70
     1
102
RTVSPropertyOp5
 70
     1
102
RTVSPropertyOp6
 70
     1
102
RTVSPropertyOp7
 70
     1
102
RTVSPropertyOp8
 70
     1
102
RTVSPropertyOp9
 70
     1
102
RTVSPropertyOp10
 70
     1
102
RTVSPropertyOp11
 70
     1
102
RTVSPropertyOp12
 70
     1
102
RTVSPropertyOp13
 70
     1
102
RTVSPropertyOp14
 70
     1
102
RTVSPropertyOp15
 70
     1
102
RTVSPropertyOp16
 70
     1
102
RTVSPropertyOp17
 70
     1
102
RTVSPropertyOp18
 70
     1
102
RTVSPropertyOp19
 70
     1
102
RTVSPropertyOp20
 70
     1
102
RTVSPropertyOp21
 70
     1
102
RTVSPropertyOp22
 70
     1
102
RTVSPropertyOp23
 70
     1
102
RTVSPropertyOp24
 70
     1
102
RTVSPropertyOp25
 70
     1
102
RTVSPropertyOp26
 70
     1
102
RTVSPropertyOp27
 70
     1
102
RTVSPropertyOp28
 70
     1
102
RTVSPropertyOp29
 70
     1
102
RTVSPropertyOp30
 70
     1
102
RTVSPropertyOp31
 70
     1
102
RTVSPropertyOp32
 70
     1
102
RTVSPropertyOp33
 70
     1
102
RTVSPropertyOp34
 70
     1
102
RTVSPropertyOp35
 70
     1
102
RTVSPropertyOp36
 70
     1
102
RTVSPropertyOp37
 70
     1
102
RTVSPropertyOp38
 70
     1
102
RTVSPropertyOp39
 70
     1
102
RTVSPropertyOp40
 70
     1
102
RTVSPropertyOp41
 70
     1
102
RTVSPropertyOp42
 70
     1
102
RTVSPropertyOp43
 70
     1
102
RTVSPropertyOp44
 70
     1
102
RTVSPropertyOp45
 70
     1
102
RTVSPropertyOp46
 70
     1
102
RTVSPropertyOp47
 70
     1
102
RTVSPropertyOp48
 70
     1
102
RTVSPropertyOp49
 70
     1
102
RTVSPropertyOp50
 70
     1
102
RTVSPropertyOp51
 70
     0
102
RTVSPropertyOp52
 70
     0
102
RTVSPropertyOp53
 70
     1
102
RTVSPropertyOp54
 70
     1
102
RTVSPropertyOp55
 70
     1
102
RTVSPropertyOp56
 70
     1
102
RTVSPropertyOp57
 70
     1
102
RTVSPropertyOp58
 70
     1
102
RTVSPropertyOp59
 70
     1
102
RTVSPropertyOp60
 70
     1
102
RTVSPropertyOp61
 70
     1
102
RTVSPropertyOp62
 70
     1
  0
XRECORD
  5
41A
102
{ACAD_REACTORS
330
419
102
}
330
419
100
AcDbXrecord
280
     1
102
RTVSPost2010Prop28
280
     0
102
RTVSPost2010PropOp28
 70
     1
102
RTVSPost2010Prop29
280
     1
102
RTVSPost2010PropOp29
 70
     1
102
RTVSPost2010Prop30
280
     1
102
RTVSPost2010PropOp30
 70
     1
102
RTVSPost2010Prop31
280
     0
102
RTVSPost2010PropOp31
 70
     1
102
RTVSPost2010Prop32
280
     0
102
RTVSPost2010PropOp32
 70
     1
102
RTVSPost2010Prop33
280
     0
102
RTVSPost2010PropOp33
 70
     1
102
RTVSPost2010Prop34
280
     0
102
RTVSPost2010PropOp34
 70
     1
102
RTVSPost2010Prop35
280
     0
102
RTVSPost2010PropOp35
 70
     1
102
RTVSPost2010Prop36
280
     0
102
RTVSPost2010PropOp36
 70
     1
102
RTVSPost2010Prop37
 90
       50
102
RTVSPost2010PropOp37
 70
     1
102
RTVSPost2010Prop38
140
0.0
102
RTVSPost2010PropOp38
 70
     1
102
RTVSPost2010Prop39
140
1.0
102
RTVSPost2010PropOp39
 70
     1
102
RTVSPost2010Prop40
 90
        0
102
RTVSPost2010PropOp40
 70
     1
102
RTVSPost2010Prop41ColorIndex
 90
       18
102
RTVSPost2010Prop41ColorRGB
 90
        0
102
RTVSPost2010PropOp41
 70
     1
102
RTVSPost2010Prop42
 90
       50
102
RTVSPost2010PropOp42
 70
     1
102
RTVSPost2010Prop43
 90
        3
102
RTVSPost2010PropOp43
 70
     1
102
RTVSPost2010Prop44ColorIndex
 90
        5
102
RTVSPost2010Prop44ColorRGB
 90
      255
102
RTVSPost2010PropOp44
 70
     1
102
RTVSPost2010Prop45
280
     0
102
RTVSPost2010PropOp45
 70
     1
102
RTVSPost2010Prop46
 90
       50
102
RTVSPost2010PropOp46
 70
     1
102
RTVSPost2010Prop47
 90
       50
102
RTVSPost2010PropOp47
 70
     1
102
RTVSPost2010Prop48
 90
       50
102
RTVSPost2010PropOp48
 70
     1
102
RTVSPost2010Prop49
280
     0
102
RTVSPost2010PropOp49
 70
     1
102
RTVSPost2010Prop50
 90
       50
102
RTVSPost2010PropOp50
 70
     1
102
RTVSPost2010Prop51ColorIndex
 90
      256
102
RTVSPost2010Prop51ColorRGB
 90
-16777216
102
RTVSPost2010PropOp51
 70
     0
102
RTVSPost2010Prop52
140
1.0
102
RTVSPost2010PropOp52
 70
     0
102
RTVSPost2010Prop53
 90
        2
102
RTVSPost2010PropOp53
 70
     1
102
RTVSPost2010Prop54
  1
strokes_ogs.tif
102
RTVSPost2010PropOp54
 70
     1
102
RTVSPost2010Prop55
280
     0
102
RTVSPost2010PropOp55
 70
     1
102
RTVSPost2010Prop56
140
1.0
102
RTVSPost2010PropOp56
 70
     1
102
RTVSPost2010Prop57
140
1.0
102
RTVSPost2010PropOp57
 70
     1
102
RTVSPropertyOp0
 70
     1
102
RTVSPropertyOp1
 70
     1
102
RTVSPropertyOp2
 70
     1
102
RTVSPropertyOp3
 70
     1
102
RTVSPropertyOp4
 70
     1
102
RTVSPropertyOp5
 70
     1
102
RTVSPropertyOp6
 70
     1
102
RTVSPropertyOp7
 70
     1
102
RTVSPropertyOp8
 70
     1
102
RTVSPropertyOp9
 70
     1
102
RTVSPropertyOp10
 70
     1
102
RTVSPropertyOp11
 70
     1
102
RTVSPropertyOp12
 70
     1
102
RTVSPropertyOp13
 70
     1
102
RTVSPropertyOp14
 70
     1
102
RTVSPropertyOp15
 70
     1
102
RTVSPropertyOp16
 70
     1
102
RTVSPropertyOp17
 70
     1
102
RTVSPropertyOp18
 70
     1
102
RTVSPropertyOp19
 70
     1
102
RTVSPropertyOp20
 70
     1
102
RTVSPropertyOp21
 70
     1
102
RTVSPropertyOp22
 70
     1
102
RTVSPropertyOp23
 70
     1
102
RTVSPropertyOp24
 70
     1
102
RTVSPropertyOp25
 70
     1
102
RTVSPropertyOp26
 70
     1
102
RTVSPropertyOp27
 70
     1
102
RTVSPropertyOp28
 70
     1
102
RTVSPropertyOp29
 70
     1
102
RTVSPropertyOp30
 70
     1
102
RTVSPropertyOp31
 70
     1
102
RTVSPropertyOp32
 70
     1
102
RTVSPropertyOp33
 70
     1
102
RTVSPropertyOp34
 70
     1
102
RTVSPropertyOp35
 70
     1
102
RTVSPropertyOp36
 70
     1
102
RTVSPropertyOp37
 70
     1
102
RTVSPropertyOp38
 70
     1
102
RTVSPropertyOp39
 70
     1
102
RTVSPropertyOp40
 70
     1
102
RTVSPropertyOp41
 70
     1
102
RTVSPropertyOp42
 70
     1
102
RTVSPropertyOp43
 70
     1
102
RTVSPropertyOp44
 70
     1
102
RTVSPropertyOp45
 70
     1
102
RTVSPropertyOp46
 70
     1
102
RTVSPropertyOp47
 70
     1
102
RTVSPropertyOp48
 70
     1
102
RTVSPropertyOp49
 70
     1
102
RTVSPropertyOp50
 70
     1
102
RTVSPropertyOp51
 70
     0
102
RTVSPropertyOp52
 70
     0
102
RTVSPropertyOp53
 70
     1
102
RTVSPropertyOp54
 70
     1
102
RTVSPropertyOp55
 70
     1
102
RTVSPropertyOp56
 70
     1
102
RTVSPropertyOp57
 70
     1
102
RTVSPropertyOp58
 70
     1
102
RTVSPropertyOp59
 70
     1
102
RTVSPropertyOp60
 70
     1
102
RTVSPropertyOp61
 70
     1
102
RTVSPropertyOp62
 70
     1
  0
XRECORD
  5
422
102
{ACAD_REACTORS
330
421
102
}
330
421
100
AcDbXrecord
280
     1
102
RTVSPost2010Prop28
280
     0
102
RTVSPost2010PropOp28
 70
     1
102
RTVSPost2010Prop29
280
     1
102
RTVSPost2010PropOp29
 70
     1
102
RTVSPost2010Prop30
280
     1
102
RTVSPost2010PropOp30
 70
     1
102
RTVSPost2010Prop31
280
     0
102
RTVSPost2010PropOp31
 70
     1
102
RTVSPost2010Prop32
280
     0
102
RTVSPost2010PropOp32
 70
     1
102
RTVSPost2010Prop33
280
     0
102
RTVSPost2010PropOp33
 70
     1
102
RTVSPost2010Prop34
280
     0
102
RTVSPost2010PropOp34
 70
     1
102
RTVSPost2010Prop35
280
     0
102
RTVSPost2010PropOp35
 70
     1
102
RTVSPost2010Prop36
280
     0
102
RTVSPost2010PropOp36
 70
     1
102
RTVSPost2010Prop37
 90
       50
102
RTVSPost2010PropOp37
 70
     1
102
RTVSPost2010Prop38
140
0.0
102
RTVSPost2010PropOp38
 70
     1
102
RTVSPost2010Prop39
140
1.0
102
RTVSPost2010PropOp39
 70
     1
102
RTVSPost2010Prop40
 90
        0
102
RTVSPost2010PropOp40
 70
     1
102
RTVSPost2010Prop41ColorIndex
 90
       18
102
RTVSPost2010Prop41ColorRGB
 90
        0
102
RTVSPost2010PropOp41
 70
     1
102
RTVSPost2010Prop42
 90
       50
102
RTVSPost2010PropOp42
 70
     1
102
RTVSPost2010Prop43
 90
        3
102
RTVSPost2010PropOp43
 70
     1
102
RTVSPost2010Prop44ColorIndex
 90
        5
102
RTVSPost2010Prop44ColorRGB
 90
      255
102
RTVSPost2010PropOp44
 70
     1
102
RTVSPost2010Prop45
280
     0
102
RTVSPost2010PropOp45
 70
     1
102
RTVSPost2010Prop46
 90
       50
102
RTVSPost2010PropOp46
 70
     1
102
RTVSPost2010Prop47
 90
       50
102
RTVSPost2010PropOp47
 70
     1
102
RTVSPost2010Prop48
 90
       50
102
RTVSPost2010PropOp48
 70
     1
102
RTVSPost2010Prop49
280
     0
102
RTVSPost2010PropOp49
 70
     1
102
RTVSPost2010Prop50
 90
       50
102
RTVSPost2010PropOp50
 70
     1
102
RTVSPost2010Prop51ColorIndex
 90
      256
102
RTVSPost2010Prop51ColorRGB
 90
-16777216
102
RTVSPost2010PropOp51
 70
     0
102
RTVSPost2010Prop52
140
1.0
102
RTVSPost2010PropOp52
 70
     0
102
RTVSPost2010Prop53
 90
        2
102
RTVSPost2010PropOp53
 70
     1
102
RTVSPost2010Prop54
  1
strokes_ogs.tif
102
RTVSPost2010PropOp54
 70
     1
102
RTVSPost2010Prop55
280
     0
102
RTVSPost2010PropOp55
 70
     1
102
RTVSPost2010Prop56
140
1.0
102
RTVSPost2010PropOp56
 70
     1
102
RTVSPost2010Prop57
140
1.0
102
RTVSPost2010PropOp57
 70
     1
102
RTVSPropertyOp0
 70
     1
102
RTVSPropertyOp1
 70
     1
102
RTVSPropertyOp2
 70
     1
102
RTVSPropertyOp3
 70
     1
102
RTVSPropertyOp4
 70
     1
102
RTVSPropertyOp5
 70
     1
102
RTVSPropertyOp6
 70
     1
102
RTVSPropertyOp7
 70
     1
102
RTVSPropertyOp8
 70
     1
102
RTVSPropertyOp9
 70
     1
102
RTVSPropertyOp10
 70
     1
102
RTVSPropertyOp11
 70
     1
102
RTVSPropertyOp12
 70
     1
102
RTVSPropertyOp13
 70
     1
102
RTVSPropertyOp14
 70
     1
102
RTVSPropertyOp15
 70
     1
102
RTVSPropertyOp16
 70
     1
102
RTVSPropertyOp17
 70
     1
102
RTVSPropertyOp18
 70
     1
102
RTVSPropertyOp19
 70
     1
102
RTVSPropertyOp20
 70
     1
102
RTVSPropertyOp21
 70
     1
102
RTVSPropertyOp22
 70
     1
102
RTVSPropertyOp23
 70
     1
102
RTVSPropertyOp24
 70
     1
102
RTVSPropertyOp25
 70
     1
102
RTVSPropertyOp26
 70
     1
102
RTVSPropertyOp27
 70
     1
102
RTVSPropertyOp28
 70
     1
102
RTVSPropertyOp29
 70
     1
102
RTVSPropertyOp30
 70
     1
102
RTVSPropertyOp31
 70
     1
102
RTVSPropertyOp32
 70
     1
102
RTVSPropertyOp33
 70
     1
102
RTVSPropertyOp34
 70
     1
102
RTVSPropertyOp35
 70
     1
102
RTVSPropertyOp36
 70
     1
102
RTVSPropertyOp37
 70
     1
102
RTVSPropertyOp38
 70
     1
102
RTVSPropertyOp39
 70
     1
102
RTVSPropertyOp40
 70
     1
102
RTVSPropertyOp41
 70
     1
102
RTVSPropertyOp42
 70
     1
102
RTVSPropertyOp43
 70
     1
102
RTVSPropertyOp44
 70
     1
102
RTVSPropertyOp45
 70
     1
102
RTVSPropertyOp46
 70
     1
102
RTVSPropertyOp47
 70
     1
102
RTVSPropertyOp48
 70
     1
102
RTVSPropertyOp49
 70
     1
102
RTVSPropertyOp50
 70
     1
102
RTVSPropertyOp51
 70
     0
102
RTVSPropertyOp52
 70
     0
102
RTVSPropertyOp53
 70
     1
102
RTVSPropertyOp54
 70
     1
102
RTVSPropertyOp55
 70
     1
102
RTVSPropertyOp56
 70
     1
102
RTVSPropertyOp57
 70
     1
102
RTVSPropertyOp58
 70
     1
102
RTVSPropertyOp59
 70
     1
102
RTVSPropertyOp60
 70
     1
102
RTVSPropertyOp61
 70
     1
102
RTVSPropertyOp62
 70
     1
  0
XRECORD
  5
434
102
{ACAD_REACTORS
330
433
102
}
330
433
100
AcDbXrecord
280
     1
102
RTVSPost2010Prop28
280
     0
102
RTVSPost2010PropOp28
 70
     1
102
RTVSPost2010Prop29
280
     1
102
RTVSPost2010PropOp29
 70
     1
102
RTVSPost2010Prop30
280
     1
102
RTVSPost2010PropOp30
 70
     1
102
RTVSPost2010Prop31
280
     0
102
RTVSPost2010PropOp31
 70
     1
102
RTVSPost2010Prop32
280
     0
102
RTVSPost2010PropOp32
 70
     1
102
RTVSPost2010Prop33
280
     0
102
RTVSPost2010PropOp33
 70
     1
102
RTVSPost2010Prop34
280
     0
102
RTVSPost2010PropOp34
 70
     1
102
RTVSPost2010Prop35
280
     0
102
RTVSPost2010PropOp35
 70
     1
102
RTVSPost2010Prop36
280
     0
102
RTVSPost2010PropOp36
 70
     1
102
RTVSPost2010Prop37
 90
       50
102
RTVSPost2010PropOp37
 70
     1
102
RTVSPost2010Prop38
140
0.0
102
RTVSPost2010PropOp38
 70
     1
102
RTVSPost2010Prop39
140
1.0
102
RTVSPost2010PropOp39
 70
     1
102
RTVSPost2010Prop40
 90
        0
102
RTVSPost2010PropOp40
 70
     1
102
RTVSPost2010Prop41ColorIndex
 90
       18
102
RTVSPost2010Prop41ColorRGB
 90
        0
102
RTVSPost2010PropOp41
 70
     1
102
RTVSPost2010Prop42
 90
       50
102
RTVSPost2010PropOp42
 70
     1
102
RTVSPost2010Prop43
 90
        3
102
RTVSPost2010PropOp43
 70
     1
102
RTVSPost2010Prop44ColorIndex
 90
        5
102
RTVSPost2010Prop44ColorRGB
 90
      255
102
RTVSPost2010PropOp44
 70
     1
102
RTVSPost2010Prop45
280
     0
102
RTVSPost2010PropOp45
 70
     1
102
RTVSPost2010Prop46
 90
       50
102
RTVSPost2010PropOp46
 70
     1
102
RTVSPost2010Prop47
 90
       50
102
RTVSPost2010PropOp47
 70
     1
102
RTVSPost2010Prop48
 90
       50
102
RTVSPost2010PropOp48
 70
     1
102
RTVSPost2010Prop49
280
     0
102
RTVSPost2010PropOp49
 70
     1
102
RTVSPost2010Prop50
 90
       50
102
RTVSPost2010PropOp50
 70
     1
102
RTVSPost2010Prop51ColorIndex
 90
      256
102
RTVSPost2010Prop51ColorRGB
 90
-16777216
102
RTVSPost2010PropOp51
 70
     0
102
RTVSPost2010Prop52
140
1.0
102
RTVSPost2010PropOp52
 70
     0
102
RTVSPost2010Prop53
 90
        2
102
RTVSPost2010PropOp53
 70
     1
102
RTVSPost2010Prop54
  1
strokes_ogs.tif
102
RTVSPost2010PropOp54
 70
     1
102
RTVSPost2010Prop55
280
     0
102
RTVSPost2010PropOp55
 70
     1
102
RTVSPost2010Prop56
140
1.0
102
RTVSPost2010PropOp56
 70
     1
102
RTVSPost2010Prop57
140
1.0
102
RTVSPost2010PropOp57
 70
     1
102
RTVSPropertyOp0
 70
     0
102
RTVSPropertyOp1
 70
     0
102
RTVSPropertyOp2
 70
     0
102
RTVSPropertyOp3
 70
     0
102
RTVSPropertyOp4
 70
     0
102
RTVSPropertyOp5
 70
     0
102
RTVSPropertyOp6
 70
     0
102
RTVSPropertyOp7
 70
     0
102
RTVSPropertyOp8
 70
     0
102
RTVSPropertyOp9
 70
     0
102
RTVSPropertyOp10
 70
     0
102
RTVSPropertyOp11
 70
     0
102
RTVSPropertyOp12
 70
     0
102
RTVSPropertyOp13
 70
     0
102
RTVSPropertyOp14
 70
     2
102
RTVSPropertyOp15
 70
     0
102
RTVSPropertyOp16
 70
     0
102
RTVSPropertyOp17
 70
     0
102
RTVSPropertyOp18
 70
     0
102
RTVSPropertyOp19
 70
     0
102
RTVSPropertyOp20
 70
     0
102
RTVSPropertyOp21
 70
     0
102
RTVSPropertyOp22
 70
     0
102
RTVSPropertyOp23
 70
     0
102
RTVSPropertyOp24
 70
     0
102
RTVSPropertyOp25
 70
     0
102
RTVSPropertyOp26
 70
     0
102
RTVSPropertyOp27
 70
     0
102
RTVSPropertyOp28
 70
     1
102
RTVSPropertyOp29
 70
     1
102
RTVSPropertyOp30
 70
     1
102
RTVSPropertyOp31
 70
     1
102
RTVSPropertyOp32
 70
     1
102
RTVSPropertyOp33
 70
     1
102
RTVSPropertyOp34
 70
     1
102
RTVSPropertyOp35
 70
     1
102
RTVSPropertyOp36
 70
     1
102
RTVSPropertyOp37
 70
     1
102
RTVSPropertyOp38
 70
     1
102
RTVSPropertyOp39
 70
     1
102
RTVSPropertyOp40
 70
     1
102
RTVSPropertyOp41
 70
     1
102
RTVSPropertyOp42
 70
     1
102
RTVSPropertyOp43
 70
     1
102
RTVSPropertyOp44
 70
     1
102
RTVSPropertyOp45
 70
     1
102
RTVSPropertyOp46
 70
     1
102
RTVSPropertyOp47
 70
     1
102
RTVSPropertyOp48
 70
     1
102
RTVSPropertyOp49
 70
     1
102
RTVSPropertyOp50
 70
     1
102
RTVSPropertyOp51
 70
     0
102
RTVSPropertyOp52
 70
     0
102
RTVSPropertyOp53
 70
     1
102
RTVSPropertyOp54
 70
     1
102
RTVSPropertyOp55
 70
     1
102
RTVSPropertyOp56
 70
     1
102
RTVSPropertyOp57
 70
     1
102
RTVSPropertyOp58
 70
     1
102
RTVSPropertyOp59
 70
     1
102
RTVSPropertyOp60
 70
     1
102
RTVSPropertyOp61
 70
     1
102
RTVSPropertyOp62
 70
     1
  0
XRECORD
  5
42E
102
{ACAD_REACTORS
330
42D
102
}
330
42D
100
AcDbXrecord
280
     1
102
RTVSPost2010Prop28
280
     0
102
RTVSPost2010PropOp28
 70
     1
102
RTVSPost2010Prop29
280
     1
102
RTVSPost2010PropOp29
 70
     1
102
RTVSPost2010Prop30
280
     1
102
RTVSPost2010PropOp30
 70
     1
102
RTVSPost2010Prop31
280
     0
102
RTVSPost2010PropOp31
 70
     1
102
RTVSPost2010Prop32
280
     0
102
RTVSPost2010PropOp32
 70
     1
102
RTVSPost2010Prop33
280
     0
102
RTVSPost2010PropOp33
 70
     1
102
RTVSPost2010Prop34
280
     0
102
RTVSPost2010PropOp34
 70
     1
102
RTVSPost2010Prop35
280
     0
102
RTVSPost2010PropOp35
 70
     1
102
RTVSPost2010Prop36
280
     0
102
RTVSPost2010PropOp36
 70
     1
102
RTVSPost2010Prop37
 90
       50
102
RTVSPost2010PropOp37
 70
     1
102
RTVSPost2010Prop38
140
0.0
102
RTVSPost2010PropOp38
 70
     1
102
RTVSPost2010Prop39
140
1.0
102
RTVSPost2010PropOp39
 70
     1
102
RTVSPost2010Prop40
 90
        0
102
RTVSPost2010PropOp40
 70
     1
102
RTVSPost2010Prop41ColorIndex
 90
       18
102
RTVSPost2010Prop41ColorRGB
 90
        0
102
RTVSPost2010PropOp41
 70
     1
102
RTVSPost2010Prop42
 90
       50
102
RTVSPost2010PropOp42
 70
     1
102
RTVSPost2010Prop43
 90
        3
102
RTVSPost2010PropOp43
 70
     1
102
RTVSPost2010Prop44ColorIndex
 90
        5
102
RTVSPost2010Prop44ColorRGB
 90
      255
102
RTVSPost2010PropOp44
 70
     1
102
RTVSPost2010Prop45
280
     0
102
RTVSPost2010PropOp45
 70
     1
102
RTVSPost2010Prop46
 90
       50
102
RTVSPost2010PropOp46
 70
     1
102
RTVSPost2010Prop47
 90
       50
102
RTVSPost2010PropOp47
 70
     1
102
RTVSPost2010Prop48
 90
       50
102
RTVSPost2010PropOp48
 70
     1
102
RTVSPost2010Prop49
280
     0
102
RTVSPost2010PropOp49
 70
     1
102
RTVSPost2010Prop50
 90
       50
102
RTVSPost2010PropOp50
 70
     1
102
RTVSPost2010Prop51ColorIndex
 90
      256
102
RTVSPost2010Prop51ColorRGB
 90
-16777216
102
RTVSPost2010PropOp51
 70
     0
102
RTVSPost2010Prop52
140
1.0
102
RTVSPost2010PropOp52
 70
     0
102
RTVSPost2010Prop53
 90
        2
102
RTVSPost2010PropOp53
 70
     1
102
RTVSPost2010Prop54
  1
strokes_ogs.tif
102
RTVSPost2010PropOp54
 70
     1
102
RTVSPost2010Prop55
280
     0
102
RTVSPost2010PropOp55
 70
     1
102
RTVSPost2010Prop56
140
1.0
102
RTVSPost2010PropOp56
 70
     1
102
RTVSPost2010Prop57
140
1.0
102
RTVSPost2010PropOp57
 70
     1
102
RTVSPropertyOp0
 70
     1
102
RTVSPropertyOp1
 70
     1
102
RTVSPropertyOp2
 70
     1
102
RTVSPropertyOp3
 70
     1
102
RTVSPropertyOp4
 70
     1
102
RTVSPropertyOp5
 70
     1
102
RTVSPropertyOp6
 70
     1
102
RTVSPropertyOp7
 70
     1
102
RTVSPropertyOp8
 70
     1
102
RTVSPropertyOp9
 70
     1
102
RTVSPropertyOp10
 70
     1
102
RTVSPropertyOp11
 70
     1
102
RTVSPropertyOp12
 70
     1
102
RTVSPropertyOp13
 70
     1
102
RTVSPropertyOp14
 70
     1
102
RTVSPropertyOp15
 70
     1
102
RTVSPropertyOp16
 70
     1
102
RTVSPropertyOp17
 70
     1
102
RTVSPropertyOp18
 70
     1
102
RTVSPropertyOp19
 70
     1
102
RTVSPropertyOp20
 70
     1
102
RTVSPropertyOp21
 70
     1
102
RTVSPropertyOp22
 70
     1
102
RTVSPropertyOp23
 70
     1
102
RTVSPropertyOp24
 70
     1
102
RTVSPropertyOp25
 70
     1
102
RTVSPropertyOp26
 70
     1
102
RTVSPropertyOp27
 70
     1
102
RTVSPropertyOp28
 70
     1
102
RTVSPropertyOp29
 70
     1
102
RTVSPropertyOp30
 70
     1
102
RTVSPropertyOp31
 70
     1
102
RTVSPropertyOp32
 70
     1
102
RTVSPropertyOp33
 70
     1
102
RTVSPropertyOp34
 70
     1
102
RTVSPropertyOp35
 70
     1
102
RTVSPropertyOp36
 70
     1
102
RTVSPropertyOp37
 70
     1
102
RTVSPropertyOp38
 70
     1
102
RTVSPropertyOp39
 70
     1
102
RTVSPropertyOp40
 70
     1
102
RTVSPropertyOp41
 70
     1
102
RTVSPropertyOp42
 70
     1
102
RTVSPropertyOp43
 70
     1
102
RTVSPropertyOp44
 70
     1
102
RTVSPropertyOp45
 70
     1
102
RTVSPropertyOp46
 70
     1
102
RTVSPropertyOp47
 70
     1
102
RTVSPropertyOp48
 70
     1
102
RTVSPropertyOp49
 70
     1
102
RTVSPropertyOp50
 70
     1
102
RTVSPropertyOp51
 70
     0
102
RTVSPropertyOp52
 70
     0
102
RTVSPropertyOp53
 70
     1
102
RTVSPropertyOp54
 70
     1
102
RTVSPropertyOp55
 70
     1
102
RTVSPropertyOp56
 70
     1
102
RTVSPropertyOp57
 70
     1
102
RTVSPropertyOp58
 70
     1
102
RTVSPropertyOp59
 70
     1
102
RTVSPropertyOp60
 70
     1
102
RTVSPropertyOp61
 70
     1
102
RTVSPropertyOp62
 70
     1
  0
XRECORD
  5
436
102
{ACAD_REACTORS
330
435
102
}
330
435
100
AcDbXrecord
280
     1
102
RTVSPost2010Prop28
280
     0
102
RTVSPost2010PropOp28
 70
     1
102
RTVSPost2010Prop29
280
     1
102
RTVSPost2010PropOp29
 70
     1
102
RTVSPost2010Prop30
280
     1
102
RTVSPost2010PropOp30
 70
     1
102
RTVSPost2010Prop31
280
     0
102
RTVSPost2010PropOp31
 70
     1
102
RTVSPost2010Prop32
280
     0
102
RTVSPost2010PropOp32
 70
     1
102
RTVSPost2010Prop33
280
     0
102
RTVSPost2010PropOp33
 70
     1
102
RTVSPost2010Prop34
280
     0
102
RTVSPost2010PropOp34
 70
     1
102
RTVSPost2010Prop35
280
     0
102
RTVSPost2010PropOp35
 70
     1
102
RTVSPost2010Prop36
280
     0
102
RTVSPost2010PropOp36
 70
     1
102
RTVSPost2010Prop37
 90
       50
102
RTVSPost2010PropOp37
 70
     1
102
RTVSPost2010Prop38
140
0.0
102
RTVSPost2010PropOp38
 70
     1
102
RTVSPost2010Prop39
140
1.0
102
RTVSPost2010PropOp39
 70
     1
102
RTVSPost2010Prop40
 90
        0
102
RTVSPost2010PropOp40
 70
     1
102
RTVSPost2010Prop41ColorIndex
 90
       18
102
RTVSPost2010Prop41ColorRGB
 90
        0
102
RTVSPost2010PropOp41
 70
     1
102
RTVSPost2010Prop42
 90
       50
102
RTVSPost2010PropOp42
 70
     1
102
RTVSPost2010Prop43
 90
        3
102
RTVSPost2010PropOp43
 70
     1
102
RTVSPost2010Prop44ColorIndex
 90
        5
102
RTVSPost2010Prop44ColorRGB
 90
      255
102
RTVSPost2010PropOp44
 70
     1
102
RTVSPost2010Prop45
280
     0
102
RTVSPost2010PropOp45
 70
     1
102
RTVSPost2010Prop46
 90
       50
102
RTVSPost2010PropOp46
 70
     1
102
RTVSPost2010Prop47
 90
       50
102
RTVSPost2010PropOp47
 70
     1
102
RTVSPost2010Prop48
 90
       50
102
RTVSPost2010PropOp48
 70
     1
102
RTVSPost2010Prop49
280
     0
102
RTVSPost2010PropOp49
 70
     1
102
RTVSPost2010Prop50
 90
       50
102
RTVSPost2010PropOp50
 70
     1
102
RTVSPost2010Prop51ColorIndex
 90
      256
102
RTVSPost2010Prop51ColorRGB
 90
-16777216
102
RTVSPost2010PropOp51
 70
     0
102
RTVSPost2010Prop52
140
1.0
102
RTVSPost2010PropOp52
 70
     0
102
RTVSPost2010Prop53
 90
        2
102
RTVSPost2010PropOp53
 70
     1
102
RTVSPost2010Prop54
  1
strokes_ogs.tif
102
RTVSPost2010PropOp54
 70
     1
102
RTVSPost2010Prop55
280
     0
102
RTVSPost2010PropOp55
 70
     1
102
RTVSPost2010Prop56
140
1.0
102
RTVSPost2010PropOp56
 70
     1
102
RTVSPost2010Prop57
140
1.0
102
RTVSPost2010PropOp57
 70
     1
102
RTVSPropertyOp0
 70
     0
102
RTVSPropertyOp1
 70
     0
102
RTVSPropertyOp2
 70
     0
102
RTVSPropertyOp3
 70
     0
102
RTVSPropertyOp4
 70
     0
102
RTVSPropertyOp5
 70
     0
102
RTVSPropertyOp6
 70
     0
102
RTVSPropertyOp7
 70
     0
102
RTVSPropertyOp8
 70
     0
102
RTVSPropertyOp9
 70
     0
102
RTVSPropertyOp10
 70
     0
102
RTVSPropertyOp11
 70
     0
102
RTVSPropertyOp12
 70
     0
102
RTVSPropertyOp13
 70
     0
102
RTVSPropertyOp14
 70
     2
102
RTVSPropertyOp15
 70
     0
102
RTVSPropertyOp16
 70
     0
102
RTVSPropertyOp17
 70
     0
102
RTVSPropertyOp18
 70
     0
102
RTVSPropertyOp19
 70
     0
102
RTVSPropertyOp20
 70
     0
102
RTVSPropertyOp21
 70
     0
102
RTVSPropertyOp22
 70
     0
102
RTVSPropertyOp23
 70
     0
102
RTVSPropertyOp24
 70
     0
102
RTVSPropertyOp25
 70
     0
102
RTVSPropertyOp26
 70
     0
102
RTVSPropertyOp27
 70
     0
102
RTVSPropertyOp28
 70
     1
102
RTVSPropertyOp29
 70
     1
102
RTVSPropertyOp30
 70
     1
102
RTVSPropertyOp31
 70
     1
102
RTVSPropertyOp32
 70
     1
102
RTVSPropertyOp33
 70
     1
102
RTVSPropertyOp34
 70
     1
102
RTVSPropertyOp35
 70
     1
102
RTVSPropertyOp36
 70
     1
102
RTVSPropertyOp37
 70
     1
102
RTVSPropertyOp38
 70
     1
102
RTVSPropertyOp39
 70
     1
102
RTVSPropertyOp40
 70
     1
102
RTVSPropertyOp41
 70
     1
102
RTVSPropertyOp42
 70
     1
102
RTVSPropertyOp43
 70
     1
102
RTVSPropertyOp44
 70
     1
102
RTVSPropertyOp45
 70
     1
102
RTVSPropertyOp46
 70
     1
102
RTVSPropertyOp47
 70
     1
102
RTVSPropertyOp48
 70
     1
102
RTVSPropertyOp49
 70
     1
102
RTVSPropertyOp50
 70
     1
102
RTVSPropertyOp51
 70
     0
102
RTVSPropertyOp52
 70
     0
102
RTVSPropertyOp53
 70
     1
102
RTVSPropertyOp54
 70
     1
102
RTVSPropertyOp55
 70
     1
102
RTVSPropertyOp56
 70
     1
102
RTVSPropertyOp57
 70
     1
102
RTVSPropertyOp58
 70
     1
102
RTVSPropertyOp59
 70
     1
102
RTVSPropertyOp60
 70
     1
102
RTVSPropertyOp61
 70
     1
102
RTVSPropertyOp62
 70
     1
  0
XRECORD
  5
426
102
{ACAD_REACTORS
330
425
102
}
330
425
100
AcDbXrecord
280
     1
102
RTVSPost2010Prop28
280
     0
102
RTVSPost2010PropOp28
 70
     1
102
RTVSPost2010Prop29
280
     1
102
RTVSPost2010PropOp29
 70
     1
102
RTVSPost2010Prop30
280
     1
102
RTVSPost2010PropOp30
 70
     1
102
RTVSPost2010Prop31
280
     0
102
RTVSPost2010PropOp31
 70
     1
102
RTVSPost2010Prop32
280
     0
102
RTVSPost2010PropOp32
 70
     1
102
RTVSPost2010Prop33
280
     0
102
RTVSPost2010PropOp33
 70
     1
102
RTVSPost2010Prop34
280
     0
102
RTVSPost2010PropOp34
 70
     1
102
RTVSPost2010Prop35
280
     0
102
RTVSPost2010PropOp35
 70
     1
102
RTVSPost2010Prop36
280
     0
102
RTVSPost2010PropOp36
 70
     1
102
RTVSPost2010Prop37
 90
       50
102
RTVSPost2010PropOp37
 70
     1
102
RTVSPost2010Prop38
140
0.0
102
RTVSPost2010PropOp38
 70
     1
102
RTVSPost2010Prop39
140
1.0
102
RTVSPost2010PropOp39
 70
     1
102
RTVSPost2010Prop40
 90
        0
102
RTVSPost2010PropOp40
 70
     1
102
RTVSPost2010Prop41ColorIndex
 90
       18
102
RTVSPost2010Prop41ColorRGB
 90
        0
102
RTVSPost2010PropOp41
 70
     1
102
RTVSPost2010Prop42
 90
       50
102
RTVSPost2010PropOp42
 70
     1
102
RTVSPost2010Prop43
 90
        3
102
RTVSPost2010PropOp43
 70
     1
102
RTVSPost2010Prop44ColorIndex
 90
        5
102
RTVSPost2010Prop44ColorRGB
 90
      255
102
RTVSPost2010PropOp44
 70
     1
102
RTVSPost2010Prop45
280
     0
102
RTVSPost2010PropOp45
 70
     1
102
RTVSPost2010Prop46
 90
       50
102
RTVSPost2010PropOp46
 70
     1
102
RTVSPost2010Prop47
 90
       50
102
RTVSPost2010PropOp47
 70
     1
102
RTVSPost2010Prop48
 90
       50
102
RTVSPost2010PropOp48
 70
     1
102
RTVSPost2010Prop49
280
     0
102
RTVSPost2010PropOp49
 70
     1
102
RTVSPost2010Prop50
 90
       50
102
RTVSPost2010PropOp50
 70
     1
102
RTVSPost2010Prop51ColorIndex
 90
      256
102
RTVSPost2010Prop51ColorRGB
 90
-16777216
102
RTVSPost2010PropOp51
 70
     0
102
RTVSPost2010Prop52
140
1.0
102
RTVSPost2010PropOp52
 70
     0
102
RTVSPost2010Prop53
 90
        2
102
RTVSPost2010PropOp53
 70
     1
102
RTVSPost2010Prop54
  1
strokes_ogs.tif
102
RTVSPost2010PropOp54
 70
     1
102
RTVSPost2010Prop55
280
     0
102
RTVSPost2010PropOp55
 70
     1
102
RTVSPost2010Prop56
140
1.0
102
RTVSPost2010PropOp56
 70
     1
102
RTVSPost2010Prop57
140
1.0
102
RTVSPost2010PropOp57
 70
     1
102
RTVSPropertyOp0
 70
     1
102
RTVSPropertyOp1
 70
     1
102
RTVSPropertyOp2
 70
     1
102
RTVSPropertyOp3
 70
     1
102
RTVSPropertyOp4
 70
     1
102
RTVSPropertyOp5
 70
     1
102
RTVSPropertyOp6
 70
     1
102
RTVSPropertyOp7
 70
     1
102
RTVSPropertyOp8
 70
     1
102
RTVSPropertyOp9
 70
     1
102
RTVSPropertyOp10
 70
     1
102
RTVSPropertyOp11
 70
     1
102
RTVSPropertyOp12
 70
     1
102
RTVSPropertyOp13
 70
     1
102
RTVSPropertyOp14
 70
     1
102
RTVSPropertyOp15
 70
     1
102
RTVSPropertyOp16
 70
     1
102
RTVSPropertyOp17
 70
     1
102
RTVSPropertyOp18
 70
     1
102
RTVSPropertyOp19
 70
     1
102
RTVSPropertyOp20
 70
     1
102
RTVSPropertyOp21
 70
     1
102
RTVSPropertyOp22
 70
     1
102
RTVSPropertyOp23
 70
     1
102
RTVSPropertyOp24
 70
     1
102
RTVSPropertyOp25
 70
     1
102
RTVSPropertyOp26
 70
     1
102
RTVSPropertyOp27
 70
     1
102
RTVSPropertyOp28
 70
     1
102
RTVSPropertyOp29
 70
     1
102
RTVSPropertyOp30
 70
     1
102
RTVSPropertyOp31
 70
     1
102
RTVSPropertyOp32
 70
     1
102
RTVSPropertyOp33
 70
     1
102
RTVSPropertyOp34
 70
     1
102
RTVSPropertyOp35
 70
     1
102
RTVSPropertyOp36
 70
     1
102
RTVSPropertyOp37
 70
     1
102
RTVSPropertyOp38
 70
     1
102
RTVSPropertyOp39
 70
     1
102
RTVSPropertyOp40
 70
     1
102
RTVSPropertyOp41
 70
     1
102
RTVSPropertyOp42
 70
     1
102
RTVSPropertyOp43
 70
     1
102
RTVSPropertyOp44
 70
     1
102
RTVSPropertyOp45
 70
     1
102
RTVSPropertyOp46
 70
     1
102
RTVSPropertyOp47
 70
     1
102
RTVSPropertyOp48
 70
     1
102
RTVSPropertyOp49
 70
     1
102
RTVSPropertyOp50
 70
     1
102
RTVSPropertyOp51
 70
     0
102
RTVSPropertyOp52
 70
     0
102
RTVSPropertyOp53
 70
     1
102
RTVSPropertyOp54
 70
     1
102
RTVSPropertyOp55
 70
     1
102
RTVSPropertyOp56
 70
     1
102
RTVSPropertyOp57
 70
     1
102
RTVSPropertyOp58
 70
     1
102
RTVSPropertyOp59
 70
     1
102
RTVSPropertyOp60
 70
     1
102
RTVSPropertyOp61
 70
     1
102
RTVSPropertyOp62
 70
     1
  0
XRECORD
  5
442
102
{ACAD_REACTORS
330
441
102
}
330
441
100
AcDbXrecord
280
     1
102
RTVSPost2010Prop28
280
     0
102
RTVSPost2010PropOp28
 70
     1
102
RTVSPost2010Prop29
280
     1
102
RTVSPost2010PropOp29
 70
     1
102
RTVSPost2010Prop30
280
     1
102
RTVSPost2010PropOp30
 70
     1
102
RTVSPost2010Prop31
280
     0
102
RTVSPost2010PropOp31
 70
     1
102
RTVSPost2010Prop32
280
     0
102
RTVSPost2010PropOp32
 70
     1
102
RTVSPost2010Prop33
280
     0
102
RTVSPost2010PropOp33
 70
     1
102
RTVSPost2010Prop34
280
     0
102
RTVSPost2010PropOp34
 70
     1
102
RTVSPost2010Prop35
280
     0
102
RTVSPost2010PropOp35
 70
     1
102
RTVSPost2010Prop36
280
     0
102
RTVSPost2010PropOp36
 70
     1
102
RTVSPost2010Prop37
 90
       50
102
RTVSPost2010PropOp37
 70
     1
102
RTVSPost2010Prop38
140
0.0
102
RTVSPost2010PropOp38
 70
     1
102
RTVSPost2010Prop39
140
1.0
102
RTVSPost2010PropOp39
 70
     1
102
RTVSPost2010Prop40
 90
        0
102
RTVSPost2010PropOp40
 70
     1
102
RTVSPost2010Prop41ColorIndex
 90
       18
102
RTVSPost2010Prop41ColorRGB
 90
        0
102
RTVSPost2010PropOp41
 70
     1
102
RTVSPost2010Prop42
 90
       50
102
RTVSPost2010PropOp42
 70
     1
102
RTVSPost2010Prop43
 90
        3
102
RTVSPost2010PropOp43
 70
     1
102
RTVSPost2010Prop44ColorIndex
 90
        5
102
RTVSPost2010Prop44ColorRGB
 90
      255
102
RTVSPost2010PropOp44
 70
     1
102
RTVSPost2010Prop45
280
     0
102
RTVSPost2010PropOp45
 70
     1
102
RTVSPost2010Prop46
 90
       50
102
RTVSPost2010PropOp46
 70
     1
102
RTVSPost2010Prop47
 90
       50
102
RTVSPost2010PropOp47
 70
     1
102
RTVSPost2010Prop48
 90
       50
102
RTVSPost2010PropOp48
 70
     1
102
RTVSPost2010Prop49
280
     0
102
RTVSPost2010PropOp49
 70
     1
102
RTVSPost2010Prop50
 90
       50
102
RTVSPost2010PropOp50
 70
     1
102
RTVSPost2010Prop51ColorIndex
 90
      256
102
RTVSPost2010Prop51ColorRGB
 90
-16777216
102
RTVSPost2010PropOp51
 70
     0
102
RTVSPost2010Prop52
140
1.0
102
RTVSPost2010PropOp52
 70
     0
102
RTVSPost2010Prop53
 90
        2
102
RTVSPost2010PropOp53
 70
     1
102
RTVSPost2010Prop54
  1
strokes_ogs.tif
102
RTVSPost2010PropOp54
 70
     1
102
RTVSPost2010Prop55
280
     0
102
RTVSPost2010PropOp55
 70
     1
102
RTVSPost2010Prop56
140
1.0
102
RTVSPost2010PropOp56
 70
     1
102
RTVSPost2010Prop57
140
1.0
102
RTVSPost2010PropOp57
 70
     1
102
RTVSPropertyOp0
 70
     1
102
RTVSPropertyOp1
 70
     1
102
RTVSPropertyOp2
 70
     1
102
RTVSPropertyOp3
 70
     1
102
RTVSPropertyOp4
 70
     1
102
RTVSPropertyOp5
 70
     1
102
RTVSPropertyOp6
 70
     1
102
RTVSPropertyOp7
 70
     1
102
RTVSPropertyOp8
 70
     1
102
RTVSPropertyOp9
 70
     1
102
RTVSPropertyOp10
 70
     1
102
RTVSPropertyOp11
 70
     1
102
RTVSPropertyOp12
 70
     1
102
RTVSPropertyOp13
 70
     1
102
RTVSPropertyOp14
 70
     1
102
RTVSPropertyOp15
 70
     1
102
RTVSPropertyOp16
 70
     1
102
RTVSPropertyOp17
 70
     1
102
RTVSPropertyOp18
 70
     1
102
RTVSPropertyOp19
 70
     1
102
RTVSPropertyOp20
 70
     1
102
RTVSPropertyOp21
 70
     1
102
RTVSPropertyOp22
 70
     1
102
RTVSPropertyOp23
 70
     1
102
RTVSPropertyOp24
 70
     1
102
RTVSPropertyOp25
 70
     1
102
RTVSPropertyOp26
 70
     1
102
RTVSPropertyOp27
 70
     1
102
RTVSPropertyOp28
 70
     1
102
RTVSPropertyOp29
 70
     1
102
RTVSPropertyOp30
 70
     1
102
RTVSPropertyOp31
 70
     1
102
RTVSPropertyOp32
 70
     1
102
RTVSPropertyOp33
 70
     1
102
RTVSPropertyOp34
 70
     1
102
RTVSPropertyOp35
 70
     1
102
RTVSPropertyOp36
 70
     1
102
RTVSPropertyOp37
 70
     1
102
RTVSPropertyOp38
 70
     1
102
RTVSPropertyOp39
 70
     1
102
RTVSPropertyOp40
 70
     1
102
RTVSPropertyOp41
 70
     1
102
RTVSPropertyOp42
 70
     1
102
RTVSPropertyOp43
 70
     1
102
RTVSPropertyOp44
 70
     1
102
RTVSPropertyOp45
 70
     1
102
RTVSPropertyOp46
 70
     1
102
RTVSPropertyOp47
 70
     1
102
RTVSPropertyOp48
 70
     1
102
RTVSPropertyOp49
 70
     1
102
RTVSPropertyOp50
 70
     1
102
RTVSPropertyOp51
 70
     0
102
RTVSPropertyOp52
 70
     0
102
RTVSPropertyOp53
 70
     1
102
RTVSPropertyOp54
 70
     1
102
RTVSPropertyOp55
 70
     1
102
RTVSPropertyOp56
 70
     1
102
RTVSPropertyOp57
 70
     1
102
RTVSPropertyOp58
 70
     1
102
RTVSPropertyOp59
 70
     1
102
RTVSPropertyOp60
 70
     1
102
RTVSPropertyOp61
 70
     1
102
RTVSPropertyOp62
 70
     1
  0
XRECORD
  5
440
102
{ACAD_REACTORS
330
43F
102
}
330
43F
100
AcDbXrecord
280
     1
102
RTVSPost2010Prop28
280
     0
102
RTVSPost2010PropOp28
 70
     1
102
RTVSPost2010Prop29
280
     1
102
RTVSPost2010PropOp29
 70
     1
102
RTVSPost2010Prop30
280
     1
102
RTVSPost2010PropOp30
 70
     1
102
RTVSPost2010Prop31
280
     0
102
RTVSPost2010PropOp31
 70
     1
102
RTVSPost2010Prop32
280
     0
102
RTVSPost2010PropOp32
 70
     1
102
RTVSPost2010Prop33
280
     0
102
RTVSPost2010PropOp33
 70
     1
102
RTVSPost2010Prop34
280
     0
102
RTVSPost2010PropOp34
 70
     1
102
RTVSPost2010Prop35
280
     0
102
RTVSPost2010PropOp35
 70
     1
102
RTVSPost2010Prop36
280
     0
102
RTVSPost2010PropOp36
 70
     1
102
RTVSPost2010Prop37
 90
       50
102
RTVSPost2010PropOp37
 70
     1
102
RTVSPost2010Prop38
140
0.0
102
RTVSPost2010PropOp38
 70
     1
102
RTVSPost2010Prop39
140
1.0
102
RTVSPost2010PropOp39
 70
     1
102
RTVSPost2010Prop40
 90
        0
102
RTVSPost2010PropOp40
 70
     1
102
RTVSPost2010Prop41ColorIndex
 90
       18
102
RTVSPost2010Prop41ColorRGB
 90
        0
102
RTVSPost2010PropOp41
 70
     1
102
RTVSPost2010Prop42
 90
       50
102
RTVSPost2010PropOp42
 70
     1
102
RTVSPost2010Prop43
 90
        3
102
RTVSPost2010PropOp43
 70
     1
102
RTVSPost2010Prop44ColorIndex
 90
        5
102
RTVSPost2010Prop44ColorRGB
 90
      255
102
RTVSPost2010PropOp44
 70
     1
102
RTVSPost2010Prop45
280
     0
102
RTVSPost2010PropOp45
 70
     1
102
RTVSPost2010Prop46
 90
       50
102
RTVSPost2010PropOp46
 70
     1
102
RTVSPost2010Prop47
 90
       50
102
RTVSPost2010PropOp47
 70
     1
102
RTVSPost2010Prop48
 90
       50
102
RTVSPost2010PropOp48
 70
     1
102
RTVSPost2010Prop49
280
     0
102
RTVSPost2010PropOp49
 70
     1
102
RTVSPost2010Prop50
 90
       50
102
RTVSPost2010PropOp50
 70
     1
102
RTVSPost2010Prop51ColorIndex
 90
      256
102
RTVSPost2010Prop51ColorRGB
 90
-16777216
102
RTVSPost2010PropOp51
 70
     0
102
RTVSPost2010Prop52
140
1.0
102
RTVSPost2010PropOp52
 70
     0
102
RTVSPost2010Prop53
 90
        2
102
RTVSPost2010PropOp53
 70
     1
102
RTVSPost2010Prop54
  1
strokes_ogs.tif
102
RTVSPost2010PropOp54
 70
     1
102
RTVSPost2010Prop55
280
     0
102
RTVSPost2010PropOp55
 70
     1
102
RTVSPost2010Prop56
140
1.0
102
RTVSPost2010PropOp56
 70
     1
102
RTVSPost2010Prop57
140
1.0
102
RTVSPost2010PropOp57
 70
     1
102
RTVSPropertyOp0
 70
     1
102
RTVSPropertyOp1
 70
     1
102
RTVSPropertyOp2
 70
     1
102
RTVSPropertyOp3
 70
     1
102
RTVSPropertyOp4
 70
     1
102
RTVSPropertyOp5
 70
     1
102
RTVSPropertyOp6
 70
     1
102
RTVSPropertyOp7
 70
     1
102
RTVSPropertyOp8
 70
     1
102
RTVSPropertyOp9
 70
     1
102
RTVSPropertyOp10
 70
     1
102
RTVSPropertyOp11
 70
     1
102
RTVSPropertyOp12
 70
     1
102
RTVSPropertyOp13
 70
     1
102
RTVSPropertyOp14
 70
     1
102
RTVSPropertyOp15
 70
     1
102
RTVSPropertyOp16
 70
     1
102
RTVSPropertyOp17
 70
     1
102
RTVSPropertyOp18
 70
     1
102
RTVSPropertyOp19
 70
     1
102
RTVSPropertyOp20
 70
     1
102
RTVSPropertyOp21
 70
     1
102
RTVSPropertyOp22
 70
     1
102
RTVSPropertyOp23
 70
     1
102
RTVSPropertyOp24
 70
     1
102
RTVSPropertyOp25
 70
     1
102
RTVSPropertyOp26
 70
     1
102
RTVSPropertyOp27
 70
     1
102
RTVSPropertyOp28
 70
     1
102
RTVSPropertyOp29
 70
     1
102
RTVSPropertyOp30
 70
     1
102
RTVSPropertyOp31
 70
     1
102
RTVSPropertyOp32
 70
     1
102
RTVSPropertyOp33
 70
     1
102
RTVSPropertyOp34
 70
     1
102
RTVSPropertyOp35
 70
     1
102
RTVSPropertyOp36
 70
     1
102
RTVSPropertyOp37
 70
     1
102
RTVSPropertyOp38
 70
     1
102
RTVSPropertyOp39
 70
     1
102
RTVSPropertyOp40
 70
     1
102
RTVSPropertyOp41
 70
     1
102
RTVSPropertyOp42
 70
     1
102
RTVSPropertyOp43
 70
     1
102
RTVSPropertyOp44
 70
     1
102
RTVSPropertyOp45
 70
     1
102
RTVSPropertyOp46
 70
     1
102
RTVSPropertyOp47
 70
     1
102
RTVSPropertyOp48
 70
     1
102
RTVSPropertyOp49
 70
     1
102
RTVSPropertyOp50
 70
     1
102
RTVSPropertyOp51
 70
     0
102
RTVSPropertyOp52
 70
     0
102
RTVSPropertyOp53
 70
     1
102
RTVSPropertyOp54
 70
     1
102
RTVSPropertyOp55
 70
     1
102
RTVSPropertyOp56
 70
     1
102
RTVSPropertyOp57
 70
     1
102
RTVSPropertyOp58
 70
     1
102
RTVSPropertyOp59
 70
     1
102
RTVSPropertyOp60
 70
     1
102
RTVSPropertyOp61
 70
     1
102
RTVSPropertyOp62
 70
     1
  0
XRECORD
  5
43A
102
{ACAD_REACTORS
330
439
102
}
330
439
100
AcDbXrecord
280
     1
102
RTVSPost2010Prop28
280
     0
102
RTVSPost2010PropOp28
 70
     1
102
RTVSPost2010Prop29
280
     1
102
RTVSPost2010PropOp29
 70
     1
102
RTVSPost2010Prop30
280
     1
102
RTVSPost2010PropOp30
 70
     1
102
RTVSPost2010Prop31
280
     0
102
RTVSPost2010PropOp31
 70
     1
102
RTVSPost2010Prop32
280
     0
102
RTVSPost2010PropOp32
 70
     1
102
RTVSPost2010Prop33
280
     0
102
RTVSPost2010PropOp33
 70
     1
102
RTVSPost2010Prop34
280
     0
102
RTVSPost2010PropOp34
 70
     1
102
RTVSPost2010Prop35
280
     0
102
RTVSPost2010PropOp35
 70
     1
102
RTVSPost2010Prop36
280
     0
102
RTVSPost2010PropOp36
 70
     1
102
RTVSPost2010Prop37
 90
       50
102
RTVSPost2010PropOp37
 70
     1
102
RTVSPost2010Prop38
140
0.0
102
RTVSPost2010PropOp38
 70
     1
102
RTVSPost2010Prop39
140
1.0
102
RTVSPost2010PropOp39
 70
     1
102
RTVSPost2010Prop40
 90
        0
102
RTVSPost2010PropOp40
 70
     1
102
RTVSPost2010Prop41ColorIndex
 90
       18
102
RTVSPost2010Prop41ColorRGB
 90
        0
102
RTVSPost2010PropOp41
 70
     1
102
RTVSPost2010Prop42
 90
       50
102
RTVSPost2010PropOp42
 70
     1
102
RTVSPost2010Prop43
 90
        3
102
RTVSPost2010PropOp43
 70
     1
102
RTVSPost2010Prop44ColorIndex
 90
        5
102
RTVSPost2010Prop44ColorRGB
 90
      255
102
RTVSPost2010PropOp44
 70
     1
102
RTVSPost2010Prop45
280
     0
102
RTVSPost2010PropOp45
 70
     1
102
RTVSPost2010Prop46
 90
       50
102
RTVSPost2010PropOp46
 70
     1
102
RTVSPost2010Prop47
 90
       50
102
RTVSPost2010PropOp47
 70
     1
102
RTVSPost2010Prop48
 90
       50
102
RTVSPost2010PropOp48
 70
     1
102
RTVSPost2010Prop49
280
     0
102
RTVSPost2010PropOp49
 70
     1
102
RTVSPost2010Prop50
 90
       50
102
RTVSPost2010PropOp50
 70
     1
102
RTVSPost2010Prop51ColorIndex
 90
      256
102
RTVSPost2010Prop51ColorRGB
 90
-16777216
102
RTVSPost2010PropOp51
 70
     0
102
RTVSPost2010Prop52
140
1.0
102
RTVSPost2010PropOp52
 70
     0
102
RTVSPost2010Prop53
 90
        2
102
RTVSPost2010PropOp53
 70
     1
102
RTVSPost2010Prop54
  1
strokes_ogs.tif
102
RTVSPost2010PropOp54
 70
     1
102
RTVSPost2010Prop55
280
     0
102
RTVSPost2010PropOp55
 70
     1
102
RTVSPost2010Prop56
140
1.0
102
RTVSPost2010PropOp56
 70
     1
102
RTVSPost2010Prop57
140
1.0
102
RTVSPost2010PropOp57
 70
     1
102
RTVSPropertyOp0
 70
     1
102
RTVSPropertyOp1
 70
     1
102
RTVSPropertyOp2
 70
     1
102
RTVSPropertyOp3
 70
     1
102
RTVSPropertyOp4
 70
     1
102
RTVSPropertyOp5
 70
     1
102
RTVSPropertyOp6
 70
     1
102
RTVSPropertyOp7
 70
     1
102
RTVSPropertyOp8
 70
     1
102
RTVSPropertyOp9
 70
     1
102
RTVSPropertyOp10
 70
     1
102
RTVSPropertyOp11
 70
     1
102
RTVSPropertyOp12
 70
     1
102
RTVSPropertyOp13
 70
     1
102
RTVSPropertyOp14
 70
     1
102
RTVSPropertyOp15
 70
     1
102
RTVSPropertyOp16
 70
     1
102
RTVSPropertyOp17
 70
     1
102
RTVSPropertyOp18
 70
     1
102
RTVSPropertyOp19
 70
     1
102
RTVSPropertyOp20
 70
     1
102
RTVSPropertyOp21
 70
     1
102
RTVSPropertyOp22
 70
     1
102
RTVSPropertyOp23
 70
     1
102
RTVSPropertyOp24
 70
     1
102
RTVSPropertyOp25
 70
     1
102
RTVSPropertyOp26
 70
     1
102
RTVSPropertyOp27
 70
     1
102
RTVSPropertyOp28
 70
     1
102
RTVSPropertyOp29
 70
     1
102
RTVSPropertyOp30
 70
     1
102
RTVSPropertyOp31
 70
     1
102
RTVSPropertyOp32
 70
     1
102
RTVSPropertyOp33
 70
     1
102
RTVSPropertyOp34
 70
     1
102
RTVSPropertyOp35
 70
     1
102
RTVSPropertyOp36
 70
     1
102
RTVSPropertyOp37
 70
     1
102
RTVSPropertyOp38
 70
     1
102
RTVSPropertyOp39
 70
     1
102
RTVSPropertyOp40
 70
     1
102
RTVSPropertyOp41
 70
     1
102
RTVSPropertyOp42
 70
     1
102
RTVSPropertyOp43
 70
     1
102
RTVSPropertyOp44
 70
     1
102
RTVSPropertyOp45
 70
     1
102
RTVSPropertyOp46
 70
     1
102
RTVSPropertyOp47
 70
     1
102
RTVSPropertyOp48
 70
     1
102
RTVSPropertyOp49
 70
     1
102
RTVSPropertyOp50
 70
     1
102
RTVSPropertyOp51
 70
     0
102
RTVSPropertyOp52
 70
     0
102
RTVSPropertyOp53
 70
     1
102
RTVSPropertyOp54
 70
     1
102
RTVSPropertyOp55
 70
     1
102
RTVSPropertyOp56
 70
     1
102
RTVSPropertyOp57
 70
     1
102
RTVSPropertyOp58
 70
     1
102
RTVSPropertyOp59
 70
     1
102
RTVSPropertyOp60
 70
     1
102
RTVSPropertyOp61
 70
     1
102
RTVSPropertyOp62
 70
     1
  0
XRECORD
  5
43C
102
{ACAD_REACTORS
330
43B
102
}
330
43B
100
AcDbXrecord
280
     1
102
RTVSPost2010Prop28
280
     0
102
RTVSPost2010PropOp28
 70
     1
102
RTVSPost2010Prop29
280
     1
102
RTVSPost2010PropOp29
 70
     1
102
RTVSPost2010Prop30
280
     1
102
RTVSPost2010PropOp30
 70
     1
102
RTVSPost2010Prop31
280
     0
102
RTVSPost2010PropOp31
 70
     1
102
RTVSPost2010Prop32
280
     0
102
RTVSPost2010PropOp32
 70
     1
102
RTVSPost2010Prop33
280
     0
102
RTVSPost2010PropOp33
 70
     1
102
RTVSPost2010Prop34
280
     0
102
RTVSPost2010PropOp34
 70
     1
102
RTVSPost2010Prop35
280
     0
102
RTVSPost2010PropOp35
 70
     1
102
RTVSPost2010Prop36
280
     0
102
RTVSPost2010PropOp36
 70
     1
102
RTVSPost2010Prop37
 90
       50
102
RTVSPost2010PropOp37
 70
     1
102
RTVSPost2010Prop38
140
0.0
102
RTVSPost2010PropOp38
 70
     1
102
RTVSPost2010Prop39
140
1.0
102
RTVSPost2010PropOp39
 70
     1
102
RTVSPost2010Prop40
 90
        0
102
RTVSPost2010PropOp40
 70
     1
102
RTVSPost2010Prop41ColorIndex
 90
       18
102
RTVSPost2010Prop41ColorRGB
 90
        0
102
RTVSPost2010PropOp41
 70
     1
102
RTVSPost2010Prop42
 90
       50
102
RTVSPost2010PropOp42
 70
     1
102
RTVSPost2010Prop43
 90
        3
102
RTVSPost2010PropOp43
 70
     1
102
RTVSPost2010Prop44ColorIndex
 90
        5
102
RTVSPost2010Prop44ColorRGB
 90
      255
102
RTVSPost2010PropOp44
 70
     1
102
RTVSPost2010Prop45
280
     0
102
RTVSPost2010PropOp45
 70
     1
102
RTVSPost2010Prop46
 90
       50
102
RTVSPost2010PropOp46
 70
     1
102
RTVSPost2010Prop47
 90
       50
102
RTVSPost2010PropOp47
 70
     1
102
RTVSPost2010Prop48
 90
       50
102
RTVSPost2010PropOp48
 70
     1
102
RTVSPost2010Prop49
280
     0
102
RTVSPost2010PropOp49
 70
     1
102
RTVSPost2010Prop50
 90
       50
102
RTVSPost2010PropOp50
 70
     1
102
RTVSPost2010Prop51ColorIndex
 90
      256
102
RTVSPost2010Prop51ColorRGB
 90
-16777216
102
RTVSPost2010PropOp51
 70
     0
102
RTVSPost2010Prop52
140
1.0
102
RTVSPost2010PropOp52
 70
     0
102
RTVSPost2010Prop53
 90
        2
102
RTVSPost2010PropOp53
 70
     1
102
RTVSPost2010Prop54
  1
strokes_ogs.tif
102
RTVSPost2010PropOp54
 70
     1
102
RTVSPost2010Prop55
280
     0
102
RTVSPost2010PropOp55
 70
     1
102
RTVSPost2010Prop56
140
1.0
102
RTVSPost2010PropOp56
 70
     1
102
RTVSPost2010Prop57
140
1.0
102
RTVSPost2010PropOp57
 70
     1
102
RTVSPropertyOp0
 70
     1
102
RTVSPropertyOp1
 70
     1
102
RTVSPropertyOp2
 70
     1
102
RTVSPropertyOp3
 70
     1
102
RTVSPropertyOp4
 70
     1
102
RTVSPropertyOp5
 70
     1
102
RTVSPropertyOp6
 70
     1
102
RTVSPropertyOp7
 70
     1
102
RTVSPropertyOp8
 70
     1
102
RTVSPropertyOp9
 70
     1
102
RTVSPropertyOp10
 70
     1
102
RTVSPropertyOp11
 70
     1
102
RTVSPropertyOp12
 70
     1
102
RTVSPropertyOp13
 70
     1
102
RTVSPropertyOp14
 70
     1
102
RTVSPropertyOp15
 70
     1
102
RTVSPropertyOp16
 70
     1
102
RTVSPropertyOp17
 70
     1
102
RTVSPropertyOp18
 70
     1
102
RTVSPropertyOp19
 70
     1
102
RTVSPropertyOp20
 70
     1
102
RTVSPropertyOp21
 70
     1
102
RTVSPropertyOp22
 70
     1
102
RTVSPropertyOp23
 70
     1
102
RTVSPropertyOp24
 70
     1
102
RTVSPropertyOp25
 70
     1
102
RTVSPropertyOp26
 70
     1
102
RTVSPropertyOp27
 70
     1
102
RTVSPropertyOp28
 70
     1
102
RTVSPropertyOp29
 70
     1
102
RTVSPropertyOp30
 70
     1
102
RTVSPropertyOp31
 70
     1
102
RTVSPropertyOp32
 70
     1
102
RTVSPropertyOp33
 70
     1
102
RTVSPropertyOp34
 70
     1
102
RTVSPropertyOp35
 70
     1
102
RTVSPropertyOp36
 70
     1
102
RTVSPropertyOp37
 70
     1
102
RTVSPropertyOp38
 70
     1
102
RTVSPropertyOp39
 70
     1
102
RTVSPropertyOp40
 70
     1
102
RTVSPropertyOp41
 70
     1
102
RTVSPropertyOp42
 70
     1
102
RTVSPropertyOp43
 70
     1
102
RTVSPropertyOp44
 70
     1
102
RTVSPropertyOp45
 70
     1
102
RTVSPropertyOp46
 70
     1
102
RTVSPropertyOp47
 70
     1
102
RTVSPropertyOp48
 70
     1
102
RTVSPropertyOp49
 70
     1
102
RTVSPropertyOp50
 70
     1
102
RTVSPropertyOp51
 70
     0
102
RTVSPropertyOp52
 70
     0
102
RTVSPropertyOp53
 70
     1
102
RTVSPropertyOp54
 70
     1
102
RTVSPropertyOp55
 70
     1
102
RTVSPropertyOp56
 70
     1
102
RTVSPropertyOp57
 70
     1
102
RTVSPropertyOp58
 70
     1
102
RTVSPropertyOp59
 70
     1
102
RTVSPropertyOp60
 70
     1
102
RTVSPropertyOp61
 70
     1
102
RTVSPropertyOp62
 70
     1
  0
XRECORD
  5
42C
102
{ACAD_REACTORS
330
42B
102
}
330
42B
100
AcDbXrecord
280
     1
102
RTVSPost2010Prop28
280
     0
102
RTVSPost2010PropOp28
 70
     1
102
RTVSPost2010Prop29
280
     1
102
RTVSPost2010PropOp29
 70
     1
102
RTVSPost2010Prop30
280
     1
102
RTVSPost2010PropOp30
 70
     1
102
RTVSPost2010Prop31
280
     0
102
RTVSPost2010PropOp31
 70
     1
102
RTVSPost2010Prop32
280
     0
102
RTVSPost2010PropOp32
 70
     1
102
RTVSPost2010Prop33
280
     0
102
RTVSPost2010PropOp33
 70
     1
102
RTVSPost2010Prop34
280
     0
102
RTVSPost2010PropOp34
 70
     1
102
RTVSPost2010Prop35
280
     0
102
RTVSPost2010PropOp35
 70
     1
102
RTVSPost2010Prop36
280
     0
102
RTVSPost2010PropOp36
 70
     1
102
RTVSPost2010Prop37
 90
       50
102
RTVSPost2010PropOp37
 70
     1
102
RTVSPost2010Prop38
140
0.0
102
RTVSPost2010PropOp38
 70
     1
102
RTVSPost2010Prop39
140
1.0
102
RTVSPost2010PropOp39
 70
     1
102
RTVSPost2010Prop40
 90
        0
102
RTVSPost2010PropOp40
 70
     1
102
RTVSPost2010Prop41ColorIndex
 90
       18
102
RTVSPost2010Prop41ColorRGB
 90
        0
102
RTVSPost2010PropOp41
 70
     1
102
RTVSPost2010Prop42
 90
       50
102
RTVSPost2010PropOp42
 70
     1
102
RTVSPost2010Prop43
 90
        3
102
RTVSPost2010PropOp43
 70
     1
102
RTVSPost2010Prop44ColorIndex
 90
        5
102
RTVSPost2010Prop44ColorRGB
 90
      255
102
RTVSPost2010PropOp44
 70
     1
102
RTVSPost2010Prop45
280
     0
102
RTVSPost2010PropOp45
 70
     1
102
RTVSPost2010Prop46
 90
       50
102
RTVSPost2010PropOp46
 70
     1
102
RTVSPost2010Prop47
 90
       50
102
RTVSPost2010PropOp47
 70
     1
102
RTVSPost2010Prop48
 90
       50
102
RTVSPost2010PropOp48
 70
     1
102
RTVSPost2010Prop49
280
     0
102
RTVSPost2010PropOp49
 70
     1
102
RTVSPost2010Prop50
 90
       50
102
RTVSPost2010PropOp50
 70
     1
102
RTVSPost2010Prop51ColorIndex
 90
      256
102
RTVSPost2010Prop51ColorRGB
 90
-16777216
102
RTVSPost2010PropOp51
 70
     0
102
RTVSPost2010Prop52
140
1.0
102
RTVSPost2010PropOp52
 70
     0
102
RTVSPost2010Prop53
 90
        2
102
RTVSPost2010PropOp53
 70
     1
102
RTVSPost2010Prop54
  1
strokes_ogs.tif
102
RTVSPost2010PropOp54
 70
     1
102
RTVSPost2010Prop55
280
     0
102
RTVSPost2010PropOp55
 70
     1
102
RTVSPost2010Prop56
140
1.0
102
RTVSPost2010PropOp56
 70
     1
102
RTVSPost2010Prop57
140
1.0
102
RTVSPost2010PropOp57
 70
     1
102
RTVSPropertyOp0
 70
     1
102
RTVSPropertyOp1
 70
     1
102
RTVSPropertyOp2
 70
     1
102
RTVSPropertyOp3
 70
     1
102
RTVSPropertyOp4
 70
     1
102
RTVSPropertyOp5
 70
     1
102
RTVSPropertyOp6
 70
     1
102
RTVSPropertyOp7
 70
     1
102
RTVSPropertyOp8
 70
     1
102
RTVSPropertyOp9
 70
     1
102
RTVSPropertyOp10
 70
     1
102
RTVSPropertyOp11
 70
     1
102
RTVSPropertyOp12
 70
     1
102
RTVSPropertyOp13
 70
     1
102
RTVSPropertyOp14
 70
     1
102
RTVSPropertyOp15
 70
     1
102
RTVSPropertyOp16
 70
     1
102
RTVSPropertyOp17
 70
     1
102
RTVSPropertyOp18
 70
     1
102
RTVSPropertyOp19
 70
     1
102
RTVSPropertyOp20
 70
     1
102
RTVSPropertyOp21
 70
     1
102
RTVSPropertyOp22
 70
     1
102
RTVSPropertyOp23
 70
     1
102
RTVSPropertyOp24
 70
     1
102
RTVSPropertyOp25
 70
     1
102
RTVSPropertyOp26
 70
     1
102
RTVSPropertyOp27
 70
     1
102
RTVSPropertyOp28
 70
     1
102
RTVSPropertyOp29
 70
     1
102
RTVSPropertyOp30
 70
     1
102
RTVSPropertyOp31
 70
     1
102
RTVSPropertyOp32
 70
     1
102
RTVSPropertyOp33
 70
     1
102
RTVSPropertyOp34
 70
     1
102
RTVSPropertyOp35
 70
     1
102
RTVSPropertyOp36
 70
     1
102
RTVSPropertyOp37
 70
     1
102
RTVSPropertyOp38
 70
     1
102
RTVSPropertyOp39
 70
     1
102
RTVSPropertyOp40
 70
     1
102
RTVSPropertyOp41
 70
     1
102
RTVSPropertyOp42
 70
     1
102
RTVSPropertyOp43
 70
     1
102
RTVSPropertyOp44
 70
     1
102
RTVSPropertyOp45
 70
     1
102
RTVSPropertyOp46
 70
     1
102
RTVSPropertyOp47
 70
     1
102
RTVSPropertyOp48
 70
     1
102
RTVSPropertyOp49
 70
     1
102
RTVSPropertyOp50
 70
     1
102
RTVSPropertyOp51
 70
     0
102
RTVSPropertyOp52
 70
     0
102
RTVSPropertyOp53
 70
     1
102
RTVSPropertyOp54
 70
     1
102
RTVSPropertyOp55
 70
     1
102
RTVSPropertyOp56
 70
     1
102
RTVSPropertyOp57
 70
     1
102
RTVSPropertyOp58
 70
     1
102
RTVSPropertyOp59
 70
     1
102
RTVSPropertyOp60
 70
     1
102
RTVSPropertyOp61
 70
     1
102
RTVSPropertyOp62
 70
     1
  0
XRECORD
  5
420
102
{ACAD_REACTORS
330
41F
102
}
330
41F
100
AcDbXrecord
280
     1
102
RTVSPost2010Prop28
280
     0
102
RTVSPost2010PropOp28
 70
     1
102
RTVSPost2010Prop29
280
     1
102
RTVSPost2010PropOp29
 70
     1
102
RTVSPost2010Prop30
280
     1
102
RTVSPost2010PropOp30
 70
     1
102
RTVSPost2010Prop31
280
     0
102
RTVSPost2010PropOp31
 70
     1
102
RTVSPost2010Prop32
280
     0
102
RTVSPost2010PropOp32
 70
     1
102
RTVSPost2010Prop33
280
     0
102
RTVSPost2010PropOp33
 70
     1
102
RTVSPost2010Prop34
280
     0
102
RTVSPost2010PropOp34
 70
     1
102
RTVSPost2010Prop35
280
     0
102
RTVSPost2010PropOp35
 70
     1
102
RTVSPost2010Prop36
280
     0
102
RTVSPost2010PropOp36
 70
     1
102
RTVSPost2010Prop37
 90
       50
102
RTVSPost2010PropOp37
 70
     1
102
RTVSPost2010Prop38
140
0.0
102
RTVSPost2010PropOp38
 70
     1
102
RTVSPost2010Prop39
140
1.0
102
RTVSPost2010PropOp39
 70
     1
102
RTVSPost2010Prop40
 90
        0
102
RTVSPost2010PropOp40
 70
     1
102
RTVSPost2010Prop41ColorIndex
 90
       18
102
RTVSPost2010Prop41ColorRGB
 90
        0
102
RTVSPost2010PropOp41
 70
     1
102
RTVSPost2010Prop42
 90
       50
102
RTVSPost2010PropOp42
 70
     1
102
RTVSPost2010Prop43
 90
        3
102
RTVSPost2010PropOp43
 70
     1
102
RTVSPost2010Prop44ColorIndex
 90
        5
102
RTVSPost2010Prop44ColorRGB
 90
      255
102
RTVSPost2010PropOp44
 70
     1
102
RTVSPost2010Prop45
280
     0
102
RTVSPost2010PropOp45
 70
     1
102
RTVSPost2010Prop46
 90
       50
102
RTVSPost2010PropOp46
 70
     1
102
RTVSPost2010Prop47
 90
       50
102
RTVSPost2010PropOp47
 70
     1
102
RTVSPost2010Prop48
 90
       50
102
RTVSPost2010PropOp48
 70
     1
102
RTVSPost2010Prop49
280
     0
102
RTVSPost2010PropOp49
 70
     1
102
RTVSPost2010Prop50
 90
       50
102
RTVSPost2010PropOp50
 70
     1
102
RTVSPost2010Prop51ColorIndex
 90
      256
102
RTVSPost2010Prop51ColorRGB
 90
-16777216
102
RTVSPost2010PropOp51
 70
     0
102
RTVSPost2010Prop52
140
1.0
102
RTVSPost2010PropOp52
 70
     0
102
RTVSPost2010Prop53
 90
        2
102
RTVSPost2010PropOp53
 70
     1
102
RTVSPost2010Prop54
  1
strokes_ogs.tif
102
RTVSPost2010PropOp54
 70
     1
102
RTVSPost2010Prop55
280
     0
102
RTVSPost2010PropOp55
 70
     1
102
RTVSPost2010Prop56
140
1.0
102
RTVSPost2010PropOp56
 70
     1
102
RTVSPost2010Prop57
140
1.0
102
RTVSPost2010PropOp57
 70
     1
102
RTVSPropertyOp0
 70
     1
102
RTVSPropertyOp1
 70
     1
102
RTVSPropertyOp2
 70
     1
102
RTVSPropertyOp3
 70
     1
102
RTVSPropertyOp4
 70
     1
102
RTVSPropertyOp5
 70
     1
102
RTVSPropertyOp6
 70
     1
102
RTVSPropertyOp7
 70
     1
102
RTVSPropertyOp8
 70
     1
102
RTVSPropertyOp9
 70
     1
102
RTVSPropertyOp10
 70
     1
102
RTVSPropertyOp11
 70
     1
102
RTVSPropertyOp12
 70
     1
102
RTVSPropertyOp13
 70
     1
102
RTVSPropertyOp14
 70
     1
102
RTVSPropertyOp15
 70
     1
102
RTVSPropertyOp16
 70
     1
102
RTVSPropertyOp17
 70
     1
102
RTVSPropertyOp18
 70
     1
102
RTVSPropertyOp19
 70
     1
102
RTVSPropertyOp20
 70
     1
102
RTVSPropertyOp21
 70
     1
102
RTVSPropertyOp22
 70
     1
102
RTVSPropertyOp23
 70
     1
102
RTVSPropertyOp24
 70
     1
102
RTVSPropertyOp25
 70
     1
102
RTVSPropertyOp26
 70
     1
102
RTVSPropertyOp27
 70
     1
102
RTVSPropertyOp28
 70
     1
102
RTVSPropertyOp29
 70
     1
102
RTVSPropertyOp30
 70
     1
102
RTVSPropertyOp31
 70
     1
102
RTVSPropertyOp32
 70
     1
102
RTVSPropertyOp33
 70
     1
102
RTVSPropertyOp34
 70
     1
102
RTVSPropertyOp35
 70
     1
102
RTVSPropertyOp36
 70
     1
102
RTVSPropertyOp37
 70
     1
102
RTVSPropertyOp38
 70
     1
102
RTVSPropertyOp39
 70
     1
102
RTVSPropertyOp40
 70
     1
102
RTVSPropertyOp41
 70
     1
102
RTVSPropertyOp42
 70
     1
102
RTVSPropertyOp43
 70
     1
102
RTVSPropertyOp44
 70
     1
102
RTVSPropertyOp45
 70
     1
102
RTVSPropertyOp46
 70
     1
102
RTVSPropertyOp47
 70
     1
102
RTVSPropertyOp48
 70
     1
102
RTVSPropertyOp49
 70
     1
102
RTVSPropertyOp50
 70
     1
102
RTVSPropertyOp51
 70
     0
102
RTVSPropertyOp52
 70
     0
102
RTVSPropertyOp53
 70
     1
102
RTVSPropertyOp54
 70
     1
102
RTVSPropertyOp55
 70
     1
102
RTVSPropertyOp56
 70
     1
102
RTVSPropertyOp57
 70
     1
102
RTVSPropertyOp58
 70
     1
102
RTVSPropertyOp59
 70
     1
102
RTVSPropertyOp60
 70
     1
102
RTVSPropertyOp61
 70
     1
102
RTVSPropertyOp62
 70
     1
  0
XRECORD
  5
43E
102
{ACAD_REACTORS
330
43D
102
}
330
43D
100
AcDbXrecord
280
     1
102
RTVSPost2010Prop28
280
     0
102
RTVSPost2010PropOp28
 70
     1
102
RTVSPost2010Prop29
280
     1
102
RTVSPost2010PropOp29
 70
     1
102
RTVSPost2010Prop30
280
     1
102
RTVSPost2010PropOp30
 70
     1
102
RTVSPost2010Prop31
280
     0
102
RTVSPost2010PropOp31
 70
     1
102
RTVSPost2010Prop32
280
     0
102
RTVSPost2010PropOp32
 70
     1
102
RTVSPost2010Prop33
280
     0
102
RTVSPost2010PropOp33
 70
     1
102
RTVSPost2010Prop34
280
     0
102
RTVSPost2010PropOp34
 70
     1
102
RTVSPost2010Prop35
280
     0
102
RTVSPost2010PropOp35
 70
     1
102
RTVSPost2010Prop36
280
     0
102
RTVSPost2010PropOp36
 70
     1
102
RTVSPost2010Prop37
 90
       50
102
RTVSPost2010PropOp37
 70
     1
102
RTVSPost2010Prop38
140
0.0
102
RTVSPost2010PropOp38
 70
     1
102
RTVSPost2010Prop39
140
1.0
102
RTVSPost2010PropOp39
 70
     1
102
RTVSPost2010Prop40
 90
        0
102
RTVSPost2010PropOp40
 70
     1
102
RTVSPost2010Prop41ColorIndex
 90
       18
102
RTVSPost2010Prop41ColorRGB
 90
        0
102
RTVSPost2010PropOp41
 70
     1
102
RTVSPost2010Prop42
 90
       50
102
RTVSPost2010PropOp42
 70
     1
102
RTVSPost2010Prop43
 90
        3
102
RTVSPost2010PropOp43
 70
     1
102
RTVSPost2010Prop44ColorIndex
 90
        5
102
RTVSPost2010Prop44ColorRGB
 90
      255
102
RTVSPost2010PropOp44
 70
     1
102
RTVSPost2010Prop45
280
     0
102
RTVSPost2010PropOp45
 70
     1
102
RTVSPost2010Prop46
 90
       50
102
RTVSPost2010PropOp46
 70
     1
102
RTVSPost2010Prop47
 90
       50
102
RTVSPost2010PropOp47
 70
     1
102
RTVSPost2010Prop48
 90
       50
102
RTVSPost2010PropOp48
 70
     1
102
RTVSPost2010Prop49
280
     0
102
RTVSPost2010PropOp49
 70
     1
102
RTVSPost2010Prop50
 90
       50
102
RTVSPost2010PropOp50
 70
     1
102
RTVSPost2010Prop51ColorIndex
 90
      256
102
RTVSPost2010Prop51ColorRGB
 90
-16777216
102
RTVSPost2010PropOp51
 70
     0
102
RTVSPost2010Prop52
140
1.0
102
RTVSPost2010PropOp52
 70
     0
102
RTVSPost2010Prop53
 90
        2
102
RTVSPost2010PropOp53
 70
     1
102
RTVSPost2010Prop54
  1
strokes_ogs.tif
102
RTVSPost2010PropOp54
 70
     1
102
RTVSPost2010Prop55
280
     0
102
RTVSPost2010PropOp55
 70
     1
102
RTVSPost2010Prop56
140
1.0
102
RTVSPost2010PropOp56
 70
     1
102
RTVSPost2010Prop57
140
1.0
102
RTVSPost2010PropOp57
 70
     1
102
RTVSPropertyOp0
 70
     1
102
RTVSPropertyOp1
 70
     1
102
RTVSPropertyOp2
 70
     1
102
RTVSPropertyOp3
 70
     1
102
RTVSPropertyOp4
 70
     1
102
RTVSPropertyOp5
 70
     1
102
RTVSPropertyOp6
 70
     1
102
RTVSPropertyOp7
 70
     1
102
RTVSPropertyOp8
 70
     1
102
RTVSPropertyOp9
 70
     1
102
RTVSPropertyOp10
 70
     1
102
RTVSPropertyOp11
 70
     1
102
RTVSPropertyOp12
 70
     1
102
RTVSPropertyOp13
 70
     1
102
RTVSPropertyOp14
 70
     1
102
RTVSPropertyOp15
 70
     1
102
RTVSPropertyOp16
 70
     1
102
RTVSPropertyOp17
 70
     1
102
RTVSPropertyOp18
 70
     1
102
RTVSPropertyOp19
 70
     1
102
RTVSPropertyOp20
 70
     1
102
RTVSPropertyOp21
 70
     1
102
RTVSPropertyOp22
 70
     1
102
RTVSPropertyOp23
 70
     1
102
RTVSPropertyOp24
 70
     1
102
RTVSPropertyOp25
 70
     1
102
RTVSPropertyOp26
 70
     1
102
RTVSPropertyOp27
 70
     1
102
RTVSPropertyOp28
 70
     1
102
RTVSPropertyOp29
 70
     1
102
RTVSPropertyOp30
 70
     1
102
RTVSPropertyOp31
 70
     1
102
RTVSPropertyOp32
 70
     1
102
RTVSPropertyOp33
 70
     1
102
RTVSPropertyOp34
 70
     1
102
RTVSPropertyOp35
 70
     1
102
RTVSPropertyOp36
 70
     1
102
RTVSPropertyOp37
 70
     1
102
RTVSPropertyOp38
 70
     1
102
RTVSPropertyOp39
 70
     1
102
RTVSPropertyOp40
 70
     1
102
RTVSPropertyOp41
 70
     1
102
RTVSPropertyOp42
 70
     1
102
RTVSPropertyOp43
 70
     1
102
RTVSPropertyOp44
 70
     1
102
RTVSPropertyOp45
 70
     1
102
RTVSPropertyOp46
 70
     1
102
RTVSPropertyOp47
 70
     1
102
RTVSPropertyOp48
 70
     1
102
RTVSPropertyOp49
 70
     1
102
RTVSPropertyOp50
 70
     1
102
RTVSPropertyOp51
 70
     0
102
RTVSPropertyOp52
 70
     0
102
RTVSPropertyOp53
 70
     1
102
RTVSPropertyOp54
 70
     1
102
RTVSPropertyOp55
 70
     1
102
RTVSPropertyOp56
 70
     1
102
RTVSPropertyOp57
 70
     1
102
RTVSPropertyOp58
 70
     1
102
RTVSPropertyOp59
 70
     1
102
RTVSPropertyOp60
 70
     1
102
RTVSPropertyOp61
 70
     1
102
RTVSPropertyOp62
 70
     1
  0
ENDSEC
  0
EOF
