  0
SECTION
  2
HEADER
  9
$ACADVER
  1
AC1015
  9
$ACADMAINTVER
 70
    20
  9
$DWGCODEPAGE
  3
ANSI_1252
  9
$INSBASE
 10
0.0
 20
0.0
 30
0.0
  9
$EXTMIN
 10
-0.000000007700903
 20
-0.0000000100690745
 30
0.0
  9
$EXTMAX
 10
2.362000122890187
 20
0.7090000113163431
 30
0.0
  9
$LIMMIN
 10
0.0
 20
0.0
  9
$LIMMAX
 10
420.0
 20
297.0
  9
$ORTHOMODE
 70
     0
  9
$REGENMODE
 70
     1
  9
$FILLMODE
 70
     1
  9
$QTEXTMODE
 70
     0
  9
$MIRRTEXT
 70
     0
  9
$LTSCALE
 40
1.0
  9
$ATTMODE
 70
     1
  9
$TEXTSIZE
 40
2.5
  9
$TRACEWID
 40
1.0
  9
$TEXTSTYLE
  7
Standard
  9
$CLAYER
  8
0
  9
$CELTYPE
  6
ByLayer
  9
$CECOLOR
 62
   256
  9
$CELTSCALE
 40
1.0
  9
$DISPSILH
 70
     0
  9
$DIMSCALE
 40
1.0
  9
$DIMASZ
 40
2.5
  9
$DIMEXO
 40
0.625
  9
$DIMDLI
 40
3.75
  9
$DIMRND
 40
0.0
  9
$DIMDLE
 40
0.0
  9
$DIMEXE
 40
1.25
  9
$DIMTP
 40
0.0
  9
$DIMTM
 40
0.0
  9
$DIMTXT
 40
2.5
  9
$DIMCEN
 40
2.5
  9
$DIMTSZ
 40
0.0
  9
$DIMTOL
 70
     0
  9
$DIMLIM
 70
     0
  9
$DIMTIH
 70
     0
  9
$DIMTOH
 70
     0
  9
$DIMSE1
 70
     0
  9
$DIMSE2
 70
     0
  9
$DIMTAD
 70
     1
  9
$DIMZIN
 70
     8
  9
$DIMBLK
  1

  9
$DIMASO
 70
     1
  9
$DIMSHO
 70
     1
  9
$DIMPOST
  1

  9
$DIMAPOST
  1

  9
$DIMALT
 70
     0
  9
$DIMALTD
 70
     3
  9
$DIMALTF
 40
0.03937007874016
  9
$DIMLFAC
 40
1.0
  9
$DIMTOFL
 70
     1
  9
$DIMTVP
 40
0.0
  9
$DIMTIX
 70
     0
  9
$DIMSOXD
 70
     0
  9
$DIMSAH
 70
     0
  9
$DIMBLK1
  1

  9
$DIMBLK2
  1

  9
$DIMSTYLE
  2
ISO-25
  9
$DIMCLRD
 70
     0
  9
$DIMCLRE
 70
     0
  9
$DIMCLRT
 70
     0
  9
$DIMTFAC
 40
1.0
  9
$DIMGAP
 40
0.625
  9
$DIMJUST
 70
     0
  9
$DIMSD1
 70
     0
  9
$DIMSD2
 70
     0
  9
$DIMTOLJ
 70
     0
  9
$DIMTZIN
 70
     8
  9
$DIMALTZ
 70
     0
  9
$DIMALTTZ
 70
     0
  9
$DIMUPT
 70
     0
  9
$DIMDEC
 70
     2
  9
$DIMTDEC
 70
     2
  9
$DIMALTU
 70
     2
  9
$DIMALTTD
 70
     3
  9
$DIMTXSTY
  7
Standard
  9
$DIMAUNIT
 70
     0
  9
$DIMADEC
 70
     0
  9
$DIMALTRND
 40
0.0
  9
$DIMAZIN
 70
     0
  9
$DIMDSEP
 70
    44
  9
$DIMATFIT
 70
     3
  9
$DIMFRAC
 70
     0
  9
$DIMLDRBLK
  1

  9
$DIMLUNIT
 70
     2
  9
$DIMLWD
 70
    -2
  9
$DIMLWE
 70
    -2
  9
$DIMTMOVE
 70
     0
  9
$LUNITS
 70
     2
  9
$LUPREC
 70
     4
  9
$SKETCHINC
 40
1.0
  9
$FILLETRAD
 40
0.0
  9
$AUNITS
 70
     0
  9
$AUPREC
 70
     0
  9
$MENU
  1
.
  9
$ELEVATION
 40
0.0
  9
$PELEVATION
 40
0.0
  9
$THICKNESS
 40
0.0
  9
$LIMCHECK
 70
     0
  9
$CHAMFERA
 40
0.0
  9
$CHAMFERB
 40
0.0
  9
$CHAMFERC
 40
0.0
  9
$CHAMFERD
 40
0.0
  9
$SKPOLY
 70
     0
  9
$TDCREATE
 40
2458166.469966319
  9
$TDUCREATE
 40
2458166.678299653
  9
$TDUPDATE
 40
2458166.481114491
  9
$TDUUPDATE
 40
2458166.689447824
  9
$TDINDWG
 40
0.0029333333
  9
$TDUSRTIMER
 40
0.0029330787
  9
$USRTIMER
 70
     1
  9
$ANGBASE
 50
0.0
  9
$ANGDIR
 70
     0
  9
$PDMODE
 70
     0
  9
$PDSIZE
 40
0.0
  9
$PLINEWID
 40
0.0
  9
$SPLFRAME
 70
     0
  9
$SPLINETYPE
 70
     6
  9
$SPLINESEGS
 70
     8
  9
$HANDSEED
  5
7CD
  9
$SURFTAB1
 70
     6
  9
$SURFTAB2
 70
     6
  9
$SURFTYPE
 70
     6
  9
$SURFU
 70
     6
  9
$SURFV
 70
     6
  9
$UCSBASE
  2

  9
$UCSNAME
  2

  9
$UCSORG
 10
0.0
 20
0.0
 30
0.0
  9
$UCSXDIR
 10
1.0
 20
0.0
 30
0.0
  9
$UCSYDIR
 10
0.0
 20
1.0
 30
0.0
  9
$UCSORTHOREF
  2

  9
$UCSORTHOVIEW
 70
     0
  9
$UCSORGTOP
 10
0.0
 20
0.0
 30
0.0
  9
$UCSORGBOTTOM
 10
0.0
 20
0.0
 30
0.0
  9
$UCSORGLEFT
 10
0.0
 20
0.0
 30
0.0
  9
$UCSORGRIGHT
 10
0.0
 20
0.0
 30
0.0
  9
$UCSORGFRONT
 10
0.0
 20
0.0
 30
0.0
  9
$UCSORGBACK
 10
0.0
 20
0.0
 30
0.0
  9
$PUCSBASE
  2

  9
$PUCSNAME
  2

  9
$PUCSORG
 10
0.0
 20
0.0
 30
0.0
  9
$PUCSXDIR
 10
1.0
 20
0.0
 30
0.0
  9
$PUCSYDIR
 10
0.0
 20
1.0
 30
0.0
  9
$PUCSORTHOREF
  2

  9
$PUCSORTHOVIEW
 70
     0
  9
$PUCSORGTOP
 10
0.0
 20
0.0
 30
0.0
  9
$PUCSORGBOTTOM
 10
0.0
 20
0.0
 30
0.0
  9
$PUCSORGLEFT
 10
0.0
 20
0.0
 30
0.0
  9
$PUCSORGRIGHT
 10
0.0
 20
0.0
 30
0.0
  9
$PUCSORGFRONT
 10
0.0
 20
0.0
 30
0.0
  9
$PUCSORGBACK
 10
0.0
 20
0.0
 30
0.0
  9
$USERI1
 70
     0
  9
$USERI2
 70
     0
  9
$USERI3
 70
     0
  9
$USERI4
 70
     0
  9
$USERI5
 70
     0
  9
$USERR1
 40
0.0
  9
$USERR2
 40
0.0
  9
$USERR3
 40
0.0
  9
$USERR4
 40
0.0
  9
$USERR5
 40
0.0
  9
$WORLDVIEW
 70
     1
  9
$SHADEDGE
 70
     3
  9
$SHADEDIF
 70
    70
  9
$TILEMODE
 70
     1
  9
$MAXACTVP
 70
    64
  9
$PINSBASE
 10
0.0
 20
0.0
 30
0.0
  9
$PLIMCHECK
 70
     0
  9
$PEXTMIN
 10
0.0
 20
0.0
 30
0.0
  9
$PEXTMAX
 10
0.0
 20
0.0
 30
0.0
  9
$PLIMMIN
 10
0.0
 20
0.0
  9
$PLIMMAX
 10
12.0
 20
9.0
  9
$UNITMODE
 70
     0
  9
$VISRETAIN
 70
     1
  9
$PLINEGEN
 70
     0
  9
$PSLTSCALE
 70
     1
  9
$TREEDEPTH
 70
  3020
  9
$CMLSTYLE
  2
Standard
  9
$CMLJUST
 70
     0
  9
$CMLSCALE
 40
20.0
  9
$PROXYGRAPHICS
 70
     1
  9
$MEASUREMENT
 70
     1
  9
$CELWEIGHT
370
    -1
  9
$ENDCAPS
280
     0
  9
$JOINSTYLE
280
     0
  9
$LWDISPLAY
290
     0
  9
$INSUNITS
 70
     1
  9
$HYPERLINKBASE
  1

  9
$STYLESHEET
  1

  9
$XEDIT
290
     1
  9
$CEPSNTYPE
380
     0
  9
$PSTYLEMODE
290
     1
  9
$FINGERPRINTGUID
  2
{E3E9843C-4F12-46E4-9102-C17839327532}
  9
$VERSIONGUID
  2
{8F7800AC-6CD7-4201-B92F-02FEB4BE89D0}
  9
$EXTNAMES
290
     1
  9
$PSVPSCALE
 40
0.0
  9
$OLESTARTUP
290
     0
  0
ENDSEC
  0
SECTION
  2
CLASSES
  0
CLASS
  1
ACDBDICTIONARYWDFLT
  2
AcDbDictionaryWithDefault
  3
ObjectDBX Classes
 90
        0
280
     0
281
     0
  0
CLASS
  1
ACDBPLACEHOLDER
  2
AcDbPlaceHolder
  3
ObjectDBX Classes
 90
        0
280
     0
281
     0
  0
CLASS
  1
LAYOUT
  2
AcDbLayout
  3
ObjectDBX Classes
 90
        0
280
     0
281
     0
  0
CLASS
  1
DICTIONARYVAR
  2
AcDbDictionaryVar
  3
ObjectDBX Classes
 90
        0
280
     0
281
     0
  0
CLASS
  1
TABLESTYLE
  2
AcDbTableStyle
  3
ObjectDBX Classes
 90
     4095
280
     0
281
     0
  0
CLASS
  1
MATERIAL
  2
AcDbMaterial
  3
ObjectDBX Classes
 90
     1153
280
     0
281
     0
  0
CLASS
  1
VISUALSTYLE
  2
AcDbVisualStyle
  3
ObjectDBX Classes
 90
     4095
280
     0
281
     0
  0
CLASS
  1
SCALE
  2
AcDbScale
  3
ObjectDBX Classes
 90
     1153
280
     0
281
     0
  0
CLASS
  1
MLEADERSTYLE
  2
AcDbMLeaderStyle
  3
ACDB_MLEADERSTYLE_CLASS
 90
     4095
280
     0
281
     0
  0
CLASS
  1
CELLSTYLEMAP
  2
AcDbCellStyleMap
  3
ObjectDBX Classes
 90
     1152
280
     0
281
     0
  0
CLASS
  1
EXACXREFPANELOBJECT
  2
ExAcXREFPanelObject
  3
EXAC_ESW
 90
    33793
280
     0
281
     0
  0
CLASS
  1
NPOCOLLECTION
  2
AcDbImpNonPersistentObjectsCollection
  3
ObjectDBX Classes
 90
    33921
280
     0
281
     0
  0
CLASS
  1
LAYER_INDEX
  2
AcDbLayerIndex
  3
ObjectDBX Classes
 90
    32768
280
     0
281
     0
  0
CLASS
  1
SPATIAL_INDEX
  2
AcDbSpatialIndex
  3
ObjectDBX Classes
 90
    32768
280
     0
281
     0
  0
CLASS
  1
IDBUFFER
  2
AcDbIdBuffer
  3
ObjectDBX Classes
 90
    32768
280
     0
281
     0
  0
CLASS
  1
ACDBSECTIONVIEWSTYLE
  2
AcDbSectionViewStyle
  3
ObjectDBX Classes
 90
     1025
280
     0
281
     0
  0
CLASS
  1
ACDBDETAILVIEWSTYLE
  2
AcDbDetailViewStyle
  3
ObjectDBX Classes
 90
     1025
280
     0
281
     0
  0
CLASS
  1
SORTENTSTABLE
  2
AcDbSortentsTable
  3
ObjectDBX Classes
 90
        0
280
     0
281
     0
  0
ENDSEC
  0
SECTION
  2
TABLES
  0
TABLE
  2
VPORT
  5
8
330
0
100
AcDbSymbolTable
 70
     1
  0
VPORT
  5
EA
330
8
100
AcDbSymbolTableRecord
100
AcDbViewportTableRecord
  2
*Active
 70
     0
 10
0.0
 20
0.0
 11
1.0
 21
1.0
 12
1.16871995218662
 22
0.0769824346295147
 13
0.0
 23
0.0
 14
10.0
 24
10.0
 15
10.0
 25
10.0
 16
0.0
 26
0.0
 36
1.0
 17
0.0
 27
0.0
 37
0.0
 40
2.62294131059586
 41
1.473039215686274
 42
50.0
 43
0.0
 44
0.0
 50
0.0
 51
0.0
 71
     0
 72
  1000
 73
     1
 74
     3
 75
     0
 76
     0
 77
     0
 78
     0
281
     0
 65
     1
110
0.0
120
0.0
130
0.0
111
1.0
121
0.0
131
0.0
112
0.0
122
1.0
132
0.0
 79
     0
146
0.0
1001
ACAD_NAV_VCDISPLAY
1070
     3
  0
ENDTAB
  0
TABLE
  2
LTYPE
  5
5
330
0
100
AcDbSymbolTable
 70
     1
  0
LTYPE
  5
14
330
5
100
AcDbSymbolTableRecord
100
AcDbLinetypeTableRecord
  2
ByBlock
 70
     0
  3

 72
    65
 73
     0
 40
0.0
  0
LTYPE
  5
15
330
5
100
AcDbSymbolTableRecord
100
AcDbLinetypeTableRecord
  2
ByLayer
 70
     0
  3

 72
    65
 73
     0
 40
0.0
  0
LTYPE
  5
16
330
5
100
AcDbSymbolTableRecord
100
AcDbLinetypeTableRecord
  2
Continuous
 70
     0
  3
Solid line
 72
    65
 73
     0
 40
0.0
  0
ENDTAB
  0
TABLE
  2
LAYER
  5
2
102
{ACAD_XDICTIONARY
360
1FF
102
}
330
0
100
AcDbSymbolTable
 70
    12
  0
LAYER
  5
10
102
{ACAD_XDICTIONARY
360
13C
102
}
330
2
100
AcDbSymbolTableRecord
100
AcDbLayerTableRecord
  2
0
 70
     0
 62
     7
  6
Continuous
370
    -3
390
F
  0
LAYER
  5
231
102
{ACAD_XDICTIONARY
360
232
102
}
330
2
100
AcDbSymbolTableRecord
100
AcDbLayerTableRecord
  2
L01
 70
     0
 62
    80
  6
Continuous
370
    -3
390
F
  0
LAYER
  5
233
102
{ACAD_XDICTIONARY
360
234
102
}
330
2
100
AcDbSymbolTableRecord
100
AcDbLayerTableRecord
  2
OUTLINE
 70
     0
 62
     7
  6
Continuous
370
    -3
390
F
  0
LAYER
  5
235
102
{ACAD_XDICTIONARY
360
236
102
}
330
2
100
AcDbSymbolTableRecord
100
AcDbLayerTableRecord
  2
FAB
 70
     0
 62
     7
  6
Continuous
370
    -3
390
F
  0
LAYER
  5
237
102
{ACAD_XDICTIONARY
360
238
102
}
330
2
100
AcDbSymbolTableRecord
100
AcDbLayerTableRecord
  2
PLATED
 70
     0
 62
     8
  6
Continuous
370
    -3
390
F
  0
LAYER
  5
239
102
{ACAD_XDICTIONARY
360
23A
102
}
330
2
100
AcDbSymbolTableRecord
100
AcDbLayerTableRecord
  2
L04
 70
     0
 62
   172
  6
Continuous
370
    -3
390
F
  0
LAYER
  5
23B
330
2
100
AcDbSymbolTableRecord
100
AcDbLayerTableRecord
  2
NON-PLATED
 70
     0
 62
     7
  6
Continuous
370
    -3
390
F
  0
LAYER
  5
23C
102
{ACAD_XDICTIONARY
360
23D
102
}
330
2
100
AcDbSymbolTableRecord
100
AcDbLayerTableRecord
  2
SSB-WHITE
 70
     0
 62
     8
  6
Continuous
370
    -3
390
F
  0
LAYER
  5
23E
330
2
100
AcDbSymbolTableRecord
100
AcDbLayerTableRecord
  2
SST-BLUE
 70
     0
 62
   174
  6
Continuous
370
    -3
390
F
1001
ACAECLAYERSTANDARD
1000

1000

  0
LAYER
  5
23F
330
2
100
AcDbSymbolTableRecord
100
AcDbLayerTableRecord
  2
L02
 70
     0
 62
   172
  6
Continuous
370
    -3
390
F
1001
ACAECLAYERSTANDARD
1000

1000

1001
AcCmTransparency
1071
        0
  0
LAYER
  5
240
330
2
100
AcDbSymbolTableRecord
100
AcDbLayerTableRecord
  2
L03
 70
     0
 62
   172
  6
Continuous
370
    -3
390
F
1001
ACAECLAYERSTANDARD
1000

1000

1001
AcCmTransparency
1071
        0
  0
LAYER
  5
241
330
2
100
AcDbSymbolTableRecord
100
AcDbLayerTableRecord
  2
SSB-BLUE
 70
     0
 62
   140
  6
Continuous
370
    -3
390
F
1001
ACAECLAYERSTANDARD
1000

1000

1001
AcCmTransparency
1071
        0
  0
ENDTAB
  0
TABLE
  2
STYLE
  5
3
330
0
100
AcDbSymbolTable
 70
     2
  0
STYLE
  5
11
330
3
100
AcDbSymbolTableRecord
100
AcDbTextStyleTableRecord
  2
Standard
 70
     0
 40
0.0
 41
1.0
 50
0.0
 71
     0
 42
2.5
  3
arial.ttf
  4

1001
ACAD
1000
Arial
1071
       34
  0
STYLE
  5
132
330
3
100
AcDbSymbolTableRecord
100
AcDbTextStyleTableRecord
  2
Annotative
 70
     0
 40
0.0
 41
1.0
 50
0.0
 71
     0
 42
2.5
  3
arial.ttf
  4

1001
AcadAnnotative
1000
AnnotativeData
1002
{
1070
     1
1070
     1
1002
}
1001
ACAD
1000
Arial
1071
       34
  0
ENDTAB
  0
TABLE
  2
VIEW
  5
6
330
0
100
AcDbSymbolTable
 70
     0
  0
ENDTAB
  0
TABLE
  2
UCS
  5
7
330
0
100
AcDbSymbolTable
 70
     0
  0
ENDTAB
  0
TABLE
  2
APPID
  5
9
330
0
100
AcDbSymbolTable
 70
    10
  0
APPID
  5
12
330
9
100
AcDbSymbolTableRecord
100
AcDbRegAppTableRecord
  2
ACAD
 70
     0
  0
APPID
  5
9E
330
9
100
AcDbSymbolTableRecord
100
AcDbRegAppTableRecord
  2
ACAD_PSEXT
 70
     0
  0
APPID
  5
133
330
9
100
AcDbSymbolTableRecord
100
AcDbRegAppTableRecord
  2
AcadAnnoPO
 70
     0
  0
APPID
  5
134
330
9
100
AcDbSymbolTableRecord
100
AcDbRegAppTableRecord
  2
AcadAnnotative
 70
     0
  0
APPID
  5
135
330
9
100
AcDbSymbolTableRecord
100
AcDbRegAppTableRecord
  2
ACAD_DSTYLE_DIMJAG
 70
     0
  0
APPID
  5
136
330
9
100
AcDbSymbolTableRecord
100
AcDbRegAppTableRecord
  2
ACAD_DSTYLE_DIMTALN
 70
     0
  0
APPID
  5
165
330
9
100
AcDbSymbolTableRecord
100
AcDbRegAppTableRecord
  2
ACAD_MLEADERVER
 70
     0
  0
APPID
  5
217
330
9
100
AcDbSymbolTableRecord
100
AcDbRegAppTableRecord
  2
ACAD_NAV_VCDISPLAY
 70
     0
  0
APPID
  5
242
330
9
100
AcDbSymbolTableRecord
100
AcDbRegAppTableRecord
  2
ACAECLAYERSTANDARD
 70
     0
  0
APPID
  5
243
330
9
100
AcDbSymbolTableRecord
100
AcDbRegAppTableRecord
  2
AcCmTransparency
 70
     0
  0
ENDTAB
  0
TABLE
  2
DIMSTYLE
  5
A
330
0
100
AcDbSymbolTable
 70
     3
100
AcDbDimStyleTable
 71
     2
340
27
340
137
  0
DIMSTYLE
105
1B0
330
A
100
AcDbSymbolTableRecord
100
AcDbDimStyleTableRecord
  2
Standard
 70
     0
340
11
  0
DIMSTYLE
105
137
330
A
100
AcDbSymbolTableRecord
100
AcDbDimStyleTableRecord
  2
Annotative
 70
     0
 40
0.0
 41
2.5
 42
0.625
 43
3.75
 44
1.25
 73
     0
 74
     0
 77
     1
 78
     8
140
2.5
141
2.5
143
0.03937007874016
147
0.625
171
     3
172
     1
271
     2
272
     2
274
     3
278
    44
283
     0
284
     8
340
11
1001
AcadAnnotative
1000
AnnotativeData
1002
{
1070
     1
1070
     1
1002
}
1001
ACAD_DSTYLE_DIMJAG
1070
   388
1040
1.5
1001
ACAD_DSTYLE_DIMTALN
1070
   392
1070
     0
  0
DIMSTYLE
105
27
330
A
100
AcDbSymbolTableRecord
100
AcDbDimStyleTableRecord
  2
ISO-25
 70
     0
 41
2.5
 42
0.625
 43
3.75
 44
1.25
 73
     0
 74
     0
 77
     1
 78
     8
140
2.5
141
2.5
143
0.03937007874016
147
0.625
171
     3
172
     1
271
     2
272
     2
274
     3
278
    44
283
     0
284
     8
340
11
  0
ENDTAB
  0
TABLE
  2
BLOCK_RECORD
  5
1
330
0
100
AcDbSymbolTable
 70
     6
  0
BLOCK_RECORD
  5
1F
102
{ACAD_XDICTIONARY
360
1CE
102
}
330
1
100
AcDbSymbolTableRecord
100
AcDbBlockTableRecord
  2
*Model_Space
340
22
  0
BLOCK_RECORD
  5
D2
330
1
100
AcDbSymbolTableRecord
100
AcDbBlockTableRecord
  2
*Paper_Space
340
D3
  0
BLOCK_RECORD
  5
D6
330
1
100
AcDbSymbolTableRecord
100
AcDbBlockTableRecord
  2
*Paper_Space0
340
D7
  0
ENDTAB
  0
ENDSEC
  0
SECTION
  2
BLOCKS
  0
BLOCK
  5
20
330
1F
100
AcDbEntity
  8
0
100
AcDbBlockBegin
  2
*Model_Space
 70
     0
 10
0.0
 20
0.0
 30
0.0
  3
*Model_Space
  1

  0
ENDBLK
  5
21
330
1F
100
AcDbEntity
  8
0
100
AcDbBlockEnd
  0
BLOCK
  5
D4
330
D2
100
AcDbEntity
 67
     1
  8
0
100
AcDbBlockBegin
  2
*Paper_Space
 70
     0
 10
0.0
 20
0.0
 30
0.0
  3
*Paper_Space
  1

  0
ENDBLK
  5
D5
330
D2
100
AcDbEntity
 67
     1
  8
0
100
AcDbBlockEnd
  0
BLOCK
  5
D8
330
D6
100
AcDbEntity
 67
     1
  8
0
100
AcDbBlockBegin
  2
*Paper_Space0
 70
     0
 10
0.0
 20
0.0
 30
0.0
  3
*Paper_Space0
  1

  0
ENDBLK
  5
D9
330
D6
100
AcDbEntity
 67
     1
  8
0
100
AcDbBlockEnd
  0
ENDSEC
  0
SECTION
  2
ENTITIES
  0
LWPOLYLINE
  5
729
330
1F
100
AcDbEntity
  8
OUTLINE
370
     0
100
AcDbPolyline
 90
        4
 70
     1
 43
0.0
 10
-0.0000000001570779
 20
0.7089999962745841
 10
-0.0000000001570779
 20
-0.0000000037254111
 10
2.361999999842922
 20
-0.0000000037254111
 10
2.361999999842922
 20
0.7089999962745841
  0
CIRCLE
  5
72A
330
1F
100
AcDbEntity
  8
PLATED
370
     0
100
AcDbCircle
 10
2.346999999842932
 20
0.3974999962745969
 30
0.0
 40
0.006
  0
CIRCLE
  5
72B
330
1F
100
AcDbEntity
  8
PLATED
370
     0
100
AcDbCircle
 10
0.010999999842948
 20
0.3754999962745504
 30
0.0
 40
0.004
  0
CIRCLE
  5
72C
330
1F
100
AcDbEntity
  8
PLATED
370
     0
100
AcDbCircle
 10
2.346999999842932
 20
0.4224999962745768
 30
0.0
 40
0.006
  0
CIRCLE
  5
72D
330
1F
100
AcDbEntity
  8
PLATED
370
     0
100
AcDbCircle
 10
0.010999999842948
 20
0.3334999962746332
 30
0.0
 40
0.004
  0
CIRCLE
  5
72E
330
1F
100
AcDbEntity
  8
PLATED
370
     0
100
AcDbCircle
 10
0.0149999998429102
 20
0.3114999962745859
 30
0.0
 40
0.006
  0
CIRCLE
  5
72F
330
1F
100
AcDbEntity
  8
PLATED
370
     0
100
AcDbCircle
 10
2.350999999842898
 20
0.3754999962745504
 30
0.0
 40
0.004
  0
CIRCLE
  5
730
330
1F
100
AcDbEntity
  8
PLATED
370
     0
100
AcDbCircle
 10
0.0149999998429102
 20
0.2864999962746077
 30
0.0
 40
0.006
  0
CIRCLE
  5
731
330
1F
100
AcDbEntity
  8
PLATED
370
     0
100
AcDbCircle
 10
0.0149999998429102
 20
0.4224999962745768
 30
0.0
 40
0.006
  0
CIRCLE
  5
732
330
1F
100
AcDbEntity
  8
PLATED
370
     0
100
AcDbCircle
 10
2.346999999842932
 20
0.2864999962746077
 30
0.0
 40
0.006
  0
CIRCLE
  5
733
330
1F
100
AcDbEntity
  8
PLATED
370
     0
100
AcDbCircle
 10
0.0149999998429102
 20
0.3974999962745969
 30
0.0
 40
0.006
  0
CIRCLE
  5
734
330
1F
100
AcDbEntity
  8
PLATED
370
     0
100
AcDbCircle
 10
2.350999999842898
 20
0.3334999962746332
 30
0.0
 40
0.004
  0
CIRCLE
  5
735
330
1F
100
AcDbEntity
  8
PLATED
370
     0
100
AcDbCircle
 10
2.346999999842932
 20
0.3114999962745859
 30
0.0
 40
0.006
  0
TEXT
  5
736
330
1F
100
AcDbEntity
  8
SST-BLUE
370
     0
100
AcDbText
 10
0.9103681098323976
 20
0.2032039037187449
 30
0.0
 40
0.05
  1
020-020-2.362Fn
 72
     1
 11
1.17832513575327
 21
0.2282039037187449
 31
0.0
100
AcDbText
 73
     2
1001
ACAD
1000
ACAD_MTEXT_DEFINED_HEIGHT_BEGIN
1070
    46
1040
0.0612507874
1000
ACAD_MTEXT_DEFINED_HEIGHT_END
  0
TEXT
  5
737
330
1F
100
AcDbEntity
  8
SST-BLUE
370
     0
100
AcDbText
 10
1.02955738649387
 20
0.0326004791843099
 30
0.0
 40
0.05
  1
8 RO4003
 72
     1
 11
1.188766117735344
 21
0.0576004791843099
 31
0.0
100
AcDbText
 73
     2
1001
ACAD
1000
ACAD_MTEXT_DEFINED_HEIGHT_BEGIN
1070
    46
1040
0.0613298429
1000
ACAD_MTEXT_DEFINED_HEIGHT_END
  0
TEXT
  5
738
330
1F
100
AcDbEntity
  8
SST-BLUE
370
     0
100
AcDbText
 10
0.9794079278184096
 20
0.1167724567017249
 30
0.0
 40
0.05
  1
W17.3 11-50
 72
     1
 11
1.179373821406404
 21
0.1417724567017249
 31
0.0
100
AcDbText
 73
     2
1001
ACAD
1000
ACAD_MTEXT_DEFINED_HEIGHT_BEGIN
1070
    46
1040
0.0613298429
1000
ACAD_MTEXT_DEFINED_HEIGHT_END
  0
TEXT
  5
739
330
1F
100
AcDbEntity
  8
SST-BLUE
370
     0
100
AcDbText
 10
0.8329124481680047
 20
0.5095841203178577
 30
0.0
 40
0.05
  1
6cm TRACE LENGTH
 72
     1
 11
1.17832513575327
 21
0.5345841203178577
 31
0.0
100
AcDbText
 73
     2
1001
ACAD
1000
ACAD_MTEXT_DEFINED_HEIGHT_BEGIN
1070
    46
1040
0.0612507874
1000
ACAD_MTEXT_DEFINED_HEIGHT_END
  0
TEXT
  5
73A
330
1F
100
AcDbEntity
  8
SST-BLUE
370
     0
100
AcDbText
 10
0.8551923752945352
 20
0.5960155673346529
 30
0.0
 40
0.05
  1
2 Vias Test Fixture A
 72
     1
 11
1.179373821406404
 21
0.6210155673346529
 31
0.0
100
AcDbText
 73
     2
1001
ACAD
1000
ACAD_MTEXT_DEFINED_HEIGHT_BEGIN
1070
    46
1040
0.0613298429
1000
ACAD_MTEXT_DEFINED_HEIGHT_END
  0
TEXT
  5
73B
330
1F
100
AcDbEntity
  8
SST-BLUE
370
     0
100
AcDbText
 10
0.2484392975456281
 20
0.1750348704034494
 30
0.0
 40
0.05
  1
Port 1
 72
     1
 11
0.3416180151445367
 21
0.2000348704034494
 31
0.0
100
AcDbText
 73
     2
1001
ACAD
1000
ACAD_MTEXT_DEFINED_HEIGHT_BEGIN
1070
    46
1040
0.0613298429
1000
ACAD_MTEXT_DEFINED_HEIGHT_END
  0
TEXT
  5
73C
330
1F
100
AcDbEntity
  8
SST-BLUE
370
     0
100
AcDbText
 10
1.926895088745664
 20
0.1750348704034494
 30
0.0
 40
0.05
  1
Port 2
 72
     1
 11
2.020073806344573
 21
0.2000348704034494
 31
0.0
100
AcDbText
 73
     2
1001
ACAD
1000
ACAD_MTEXT_DEFINED_HEIGHT_BEGIN
1070
    46
1040
0.0613298429
1000
ACAD_MTEXT_DEFINED_HEIGHT_END
  0
TEXT
  5
73D
330
1F
100
AcDbEntity
  8
SST-BLUE
370
     0
100
AcDbText
 10
0.2553093994239112
 20
0.4844031849013314
 30
0.0
 40
0.05
  1
J9
 72
     1
 11
0.2921954840078129
 21
0.5094031849013314
 31
0.0
100
AcDbText
 73
     2
1001
ACAD
1000
ACAD_MTEXT_DEFINED_HEIGHT_BEGIN
1070
    46
1040
0.0613298429
1000
ACAD_MTEXT_DEFINED_HEIGHT_END
  0
TEXT
  5
73E
330
1F
100
AcDbEntity
  8
SST-BLUE
370
     0
100
AcDbText
 10
1.976298448234562
 20
0.4844031849013314
 30
0.0
 40
0.05
  1
J10
 72
     1
 11
2.032608134455571
 21
0.5094031849013314
 31
0.0
100
AcDbText
 73
     2
1001
ACAD
1000
ACAD_MTEXT_DEFINED_HEIGHT_BEGIN
1070
    46
1040
0.0613298429
1000
ACAD_MTEXT_DEFINED_HEIGHT_END
  0
LWPOLYLINE
  5
73F
330
1F
100
AcDbEntity
  8
L01
370
     0
100
AcDbPolyline
 90
       12
 70
     1
 43
0.0
 10
0.7586605677278336
 20
0.3458499962746009
 10
0.0499999998429353
 20
0.3458499962746009
 10
-0.0000000001570779
 20
0.3489999962746078
 10
-0.0000000001570744
 20
0.3489999962746078
 10
-0.0000000001570744
 20
0.3599999962745768
 10
-0.0000000001570779
 20
0.3599999962745768
 10
0.0499999998429353
 20
0.3631499962745792
 10
0.7586605677278336
 20
0.3631499962745792
 42
0.2412489548175303
 10
0.7723393834659955
 20
0.3631499962745792
 10
0.7874999755969121
 20
0.3631499962745792
 10
0.7874999755969121
 20
0.3458499962746009
 10
0.7723393834659955
 20
0.3458499962746009
 42
0.2412489548175301
  0
CIRCLE
  5
740
330
1F
100
AcDbEntity
  8
PLATED
370
     0
100
AcDbCircle
 10
0.7874999755969121
 20
0.3544999962745923
 30
0.0
 40
0.005
  0
CIRCLE
  5
741
330
1F
100
AcDbEntity
  8
L01
370
     0
100
AcDbCircle
 10
0.7874999755969121
 20
0.3544999962745923
 30
0.0
 40
0.01
  0
CIRCLE
  5
742
330
1F
100
AcDbEntity
  8
PLATED
370
     0
100
AcDbCircle
 10
0.8094999755969123
 20
0.332499996274584
 30
0.0
 40
0.005
  0
CIRCLE
  5
743
330
1F
100
AcDbEntity
  8
PLATED
370
     0
100
AcDbCircle
 10
1.57450002408888
 20
0.3544999962745923
 30
0.0
 40
0.005
  0
CIRCLE
  5
744
330
1F
100
AcDbEntity
  8
L04
370
     0
100
AcDbCircle
 10
0.7874999755969121
 20
0.3544999962745923
 30
0.0
 40
0.01
  0
CIRCLE
  5
745
330
1F
100
AcDbEntity
  8
L04
370
     0
100
AcDbCircle
 10
1.574500024088937
 20
0.3544999962745923
 30
0.0
 40
0.01
  0
LWPOLYLINE
  5
746
330
1F
100
AcDbEntity
  8
L04
370
     0
100
AcDbPolyline
 90
       12
 70
     1
 43
0.0
 10
0.8163393834659924
 20
0.3631499962745792
 10
1.545660616219851
 20
0.3631499962745792
 42
0.2412489548175303
 10
1.559339431958012
 20
0.3631499962745792
 10
1.574499975596911
 20
0.3631499962745792
 10
1.574499975596911
 20
0.3458499962746009
 10
1.559339431958012
 20
0.3458499962746009
 42
0.2412489548175301
 10
1.545660616219851
 20
0.3458499962746009
 10
0.8163393834659924
 20
0.3458499962746009
 42
0.2412489548175301
 10
0.8026605677278322
 20
0.3458499962746009
 10
0.7874999755969121
 20
0.3458499962746009
 10
0.7874999755969121
 20
0.3631499962745792
 10
0.8026605677278322
 20
0.3631499962745792
 42
0.2412489548175303
  0
CIRCLE
  5
747
330
1F
100
AcDbEntity
  8
PLATED
370
     0
100
AcDbCircle
 10
0.8094999755969123
 20
0.3764999962745961
 30
0.0
 40
0.005
  0
CIRCLE
  5
748
330
1F
100
AcDbEntity
  8
PLATED
370
     0
100
AcDbCircle
 10
0.7654999755969137
 20
0.332499996274584
 30
0.0
 40
0.005
  0
CIRCLE
  5
749
330
1F
100
AcDbEntity
  8
PLATED
370
     0
100
AcDbCircle
 10
0.7654999755969137
 20
0.3764999962745961
 30
0.0
 40
0.005
  0
CIRCLE
  5
74A
330
1F
100
AcDbEntity
  8
L01
370
     0
100
AcDbCircle
 10
0.7654999755969137
 20
0.3764999962745961
 30
0.0
 40
0.01
  0
CIRCLE
  5
74B
330
1F
100
AcDbEntity
  8
L01
370
     0
100
AcDbCircle
 10
0.8094999755969123
 20
0.3764999962745961
 30
0.0
 40
0.01
  0
CIRCLE
  5
74C
330
1F
100
AcDbEntity
  8
L01
370
     0
100
AcDbCircle
 10
0.8094999755969123
 20
0.332499996274584
 30
0.0
 40
0.01
  0
CIRCLE
  5
74D
330
1F
100
AcDbEntity
  8
L01
370
     0
100
AcDbCircle
 10
0.7654999755969137
 20
0.332499996274584
 30
0.0
 40
0.01
  0
CIRCLE
  5
74E
330
1F
100
AcDbEntity
  8
L04
370
     0
100
AcDbCircle
 10
0.7654999755969137
 20
0.3764999962745961
 30
0.0
 40
0.01
  0
CIRCLE
  5
74F
330
1F
100
AcDbEntity
  8
L04
370
     0
100
AcDbCircle
 10
0.8094999755969123
 20
0.3764999962745961
 30
0.0
 40
0.01
  0
CIRCLE
  5
750
330
1F
100
AcDbEntity
  8
L04
370
     0
100
AcDbCircle
 10
0.8094999755969123
 20
0.332499996274584
 30
0.0
 40
0.01
  0
CIRCLE
  5
751
330
1F
100
AcDbEntity
  8
L04
370
     0
100
AcDbCircle
 10
0.7654999755969137
 20
0.332499996274584
 30
0.0
 40
0.01
  0
CIRCLE
  5
752
330
1F
100
AcDbEntity
  8
PLATED
370
     0
100
AcDbCircle
 10
1.552500024088931
 20
0.332499996274584
 30
0.0
 40
0.005
  0
CIRCLE
  5
753
330
1F
100
AcDbEntity
  8
PLATED
370
     0
100
AcDbCircle
 10
1.552500024088931
 20
0.3764999962745961
 30
0.0
 40
0.005
  0
CIRCLE
  5
754
330
1F
100
AcDbEntity
  8
PLATED
370
     0
100
AcDbCircle
 10
1.596500024088927
 20
0.332499996274584
 30
0.0
 40
0.005
  0
CIRCLE
  5
755
330
1F
100
AcDbEntity
  8
PLATED
370
     0
100
AcDbCircle
 10
1.596500024088927
 20
0.3764999962745961
 30
0.0
 40
0.005
  0
CIRCLE
  5
756
330
1F
100
AcDbEntity
  8
L01
370
     0
100
AcDbCircle
 10
1.596500024088927
 20
0.3764999962745961
 30
0.0
 40
0.01
  0
CIRCLE
  5
757
330
1F
100
AcDbEntity
  8
L01
370
     0
100
AcDbCircle
 10
1.552500024088931
 20
0.3764999962745961
 30
0.0
 40
0.01
  0
CIRCLE
  5
758
330
1F
100
AcDbEntity
  8
L01
370
     0
100
AcDbCircle
 10
1.552500024088931
 20
0.332499996274584
 30
0.0
 40
0.01
  0
CIRCLE
  5
759
330
1F
100
AcDbEntity
  8
L01
370
     0
100
AcDbCircle
 10
1.596500024088927
 20
0.332499996274584
 30
0.0
 40
0.01
  0
CIRCLE
  5
75A
330
1F
100
AcDbEntity
  8
L04
370
     0
100
AcDbCircle
 10
1.596500024088927
 20
0.3764999962745961
 30
0.0
 40
0.01
  0
CIRCLE
  5
75B
330
1F
100
AcDbEntity
  8
L04
370
     0
100
AcDbCircle
 10
1.552500024088931
 20
0.3764999962745961
 30
0.0
 40
0.01
  0
CIRCLE
  5
75C
330
1F
100
AcDbEntity
  8
L04
370
     0
100
AcDbCircle
 10
1.552500024088931
 20
0.332499996274584
 30
0.0
 40
0.01
  0
CIRCLE
  5
75D
330
1F
100
AcDbEntity
  8
L04
370
     0
100
AcDbCircle
 10
1.596500024088927
 20
0.332499996274584
 30
0.0
 40
0.01
  0
LWPOLYLINE
  5
75E
330
1F
100
AcDbEntity
  8
L01
370
     0
100
AcDbPolyline
 90
       12
 70
     1
 43
0.0
 10
1.603339431958008
 20
0.3458499962746009
 10
2.311999999842907
 20
0.3458499962746009
 10
2.361999999842918
 20
0.3489999962746078
 10
2.361999999842922
 20
0.3489999962746024
 10
2.361999999842922
 20
0.3599999962745715
 10
2.361999999842918
 20
0.3599999962745768
 10
2.311999999842907
 20
0.3631499962745792
 10
1.603339431958008
 20
0.3631499962745792
 42
-0.2412489548175303
 10
1.589660616219848
 20
0.3631499962745792
 10
1.57450002408893
 20
0.3631499962745792
 10
1.57450002408893
 20
0.3458499962746009
 10
1.589660616219848
 20
0.3458499962746009
 42
-0.2412489548175301
  0
LWPOLYLINE
  5
75F
330
1F
100
AcDbEntity
  8
L04
370
     0
100
AcDbPolyline
 90
        4
 70
     1
 43
0.0
 10
-0.0000000001570744
 20
0.693999996274604
 10
0.2059999915580679
 20
0.693999996274485
 10
0.2059999915580679
 20
0.0149999962744616
 10
-0.0000000001570744
 20
0.0149999962745806
  0
LWPOLYLINE
  5
760
330
1F
100
AcDbEntity
  8
L04
370
     0
100
AcDbPolyline
 90
        4
 70
     1
 43
0.0
 10
2.361999999842922
 20
0.6939999962745987
 10
2.156000008127772
 20
0.693999996274485
 10
2.156000008127772
 20
0.0149999962744616
 10
2.361999999842922
 20
0.0149999962745753
  0
TEXT
  5
761
330
1F
100
AcDbEntity
  8
SST-BLUE
370
     0
100
AcDbText
 10
1.568424496054455
 20
0.035992034562922
 30
0.0
 40
0.05
  1
907-000-10144
 72
     1
 11
1.805344687050363
 21
0.060992034562922
 31
0.0
100
AcDbText
 73
     2
1001
ACAD
1000
ACAD_MTEXT_DEFINED_HEIGHT_BEGIN
1070
    46
1040
0.0613298429
1000
ACAD_MTEXT_DEFINED_HEIGHT_END
  0
LINE
  5
762
330
1F
100
AcDbEntity
  8
FAB
370
     0
100
AcDbLine
 10
-0.0000000001570744
 20
0.7089999962745841
 30
0.0
 11
-0.0000000001570744
 21
-0.0000000037254111
 31
0.0
  0
LINE
  5
763
330
1F
100
AcDbEntity
  8
FAB
370
     0
100
AcDbLine
 10
-0.0000000001570744
 20
-0.0000000037254111
 30
0.0
 11
2.361999999842918
 21
-0.0000000037254111
 31
0.0
  0
LINE
  5
764
330
1F
100
AcDbEntity
  8
FAB
370
     0
100
AcDbLine
 10
2.361999999842918
 20
-0.0000000037254111
 30
0.0
 11
2.361999999842918
 21
0.7089999962745841
 31
0.0
  0
LINE
  5
765
330
1F
100
AcDbEntity
  8
FAB
370
     0
100
AcDbLine
 10
2.361999999842918
 20
0.7089999962745841
 30
0.0
 11
-0.0000000001570744
 21
0.7089999962745841
 31
0.0
  0
CIRCLE
  5
766
330
1F
100
AcDbEntity
  8
NON-PLATED
370
     0
100
AcDbCircle
 10
0.1100001942427156
 20
0.541999990574217
 30
0.0
 40
0.04
  0
CIRCLE
  5
767
330
1F
100
AcDbEntity
  8
NON-PLATED
370
     0
100
AcDbCircle
 10
0.1100001942427156
 20
0.1670000019745039
 30
0.0
 40
0.04
  0
CIRCLE
  5
768
330
1F
100
AcDbEntity
  8
NON-PLATED
370
     0
100
AcDbCircle
 10
2.251999957732099
 20
0.541999990574217
 30
0.0
 40
0.04
  0
CIRCLE
  5
769
330
1F
100
AcDbEntity
  8
NON-PLATED
370
     0
100
AcDbCircle
 10
2.251999957732099
 20
0.1670000019745039
 30
0.0
 40
0.04
  0
LWPOLYLINE
  5
76A
330
1F
100
AcDbEntity
  8
L01
  6
Continuous
370
     0
100
AcDbPolyline
 90
        8
 70
     1
 43
0.0
 10
-0.0000000001570513
 20
0.343499965532633
 10
0.0000001228901887
 20
0.343499965532633
 10
0.0200001228901705
 20
0.3419999655325601
 10
0.0300001228901614
 20
0.3219999655325774
 10
0.0300001228901614
 20
0.2894999532572129
 10
0.2060001146053345
 20
0.289499953257101
 10
0.2060001146053345
 20
0.1044999655324759
 10
-0.0000000001571063
 20
0.1044999655324759
  0
LWPOLYLINE
  5
76B
330
1F
100
AcDbEntity
  8
L01
  6
Continuous
370
     0
100
AcDbPolyline
 90
        8
 70
     1
 43
0.0
 10
-0.0000000001570459
 20
0.3654999655323419
 10
0.0000001228901887
 20
0.3654999655323419
 10
0.0200001228901705
 20
0.3669999655324219
 10
0.0300001228901614
 20
0.3869999655324046
 10
0.0300001228901614
 20
0.4194999778077691
 10
0.2060001146053345
 20
0.419499977807881
 10
0.2060001146053345
 20
0.6044999655325114
 10
-0.0000000001571028
 20
0.6044999655325114
  0
LWPOLYLINE
  5
76C
330
1F
100
AcDbEntity
  8
L01
  6
Continuous
370
     0
100
AcDbPolyline
 90
        8
 70
     1
 43
0.0
 10
2.361999999842893
 20
0.343499965532633
 10
2.362000122890187
 20
0.343499965532633
 10
2.342000122890205
 20
0.3419999655325601
 10
2.332000122890214
 20
0.3219999655325774
 10
2.332000122890214
 20
0.2894999532572129
 10
2.156000131175041
 20
0.289499953257101
 10
2.156000131175041
 20
0.1044999655324759
 10
2.36199999984295
 20
0.1044999655324759
  0
LWPOLYLINE
  5
76D
330
1F
100
AcDbEntity
  8
L01
  6
Continuous
370
     0
100
AcDbPolyline
 90
        8
 70
     1
 43
0.0
 10
2.361999999842893
 20
0.3654999655323419
 10
2.362000122890187
 20
0.3654999655323419
 10
2.342000122890205
 20
0.3669999655324219
 10
2.332000122890214
 20
0.3869999655324046
 10
2.332000122890214
 20
0.4194999778077691
 10
2.156000131175041
 20
0.419499977807881
 10
2.156000131175041
 20
0.6044999655325114
 10
2.36199999984295
 20
0.6044999655325114
  0
LWPOLYLINE
  5
76E
330
1F
100
AcDbEntity
  8
SSB-WHITE
370
     0
100
AcDbPolyline
 90
        4
 70
     1
 43
0.0
 10
0.4934999265625457
 20
0.0149999640936249
 10
1.868499926562542
 20
0.0149999640936249
 10
1.868499926562542
 20
0.3149999640936274
 10
0.4934999265625457
 20
0.3149999640936274
  0
LWPOLYLINE
  5
76F
330
1F
100
AcDbEntity
  8
SSB-BLUE
370
     0
100
AcDbPolyline
 90
      107
 70
     1
 43
0.0
 10
0.3140176851660019
 20
0.2044704128059749
 10
0.3140176851660019
 20
0.216451308711699
 10
0.3140776503181968
 20
0.221742531375698
 10
0.3167900366698841
 20
0.2230786030477594
 10
0.3215847674941692
 20
0.2254403993677574
 10
0.3257547950700328
 20
0.2274944778877668
 10
0.3272682056700162
 20
0.22823604603966
 10
0.3285418096381392
 20
0.2287615395276994
 10
0.3296729859182026
 20
0.229101970215777
 10
0.3306296038141436
 20
0.229269387231847
 10
0.3317461298219957
 20
0.2292322058797227
 10
0.3330731684700652
 20
0.2286772389998077
 10
0.3341572159019712
 20
0.2275074552158349
 10
0.3349641321419519
 20
0.2256826910797649
 10
0.3353541661498838
 20
0.2247979545518195
 10
0.3360859334461317
 20
0.2247979545518195
 10
0.3369697055820247
 20
0.2247979545518195
 10
0.3375114667500583
 20
0.2247979545518195
 10
0.337535751582184
 20
0.2280102750397699
 10
0.337535751582184
 20
0.238392494367667
 10
0.337535751582184
 20
0.2497769575356639
 10
0.337535751582184
 20
0.2556490789597028
 10
0.3371957642459922
 20
0.2556856500397551
 10
0.3363646090380392
 20
0.2556856500397551
 10
0.3355334538300863
 20
0.2556856500397551
 10
0.3351770587261065
 20
0.2555798021677296
 10
0.3348880646701424
 20
0.2542807237117595
 10
0.3344557165981321
 20
0.253131487311677
 10
0.3338759978221351
 20
0.252142134375732
 10
0.3331538600940647
 20
0.2513095115196631
 10
0.3321950856539466
 20
0.2504709453757989
 10
0.3308918282701523
 20
0.2496051912398345
 10
0.3292340471581632
 20
0.2487403643677419
 10
0.3260641911180429
 20
0.2472589078717977
 10
0.3072529145821967
 20
0.2380697547037069
 10
0.2804548910700522
 20
0.22497914137573
 10
0.2605026505019321
 20
0.2152326367116899
 10
0.2568097364460478
 20
0.2134438218397872
 10
0.2552815523340932
 20
0.2128286108797495
 10
0.2539387402139823
 20
0.2124343015357351
 10
0.2527863201661891
 20
0.2122588854637692
 10
0.2513799187021171
 20
0.2123672486797243
 10
0.2500313620381718
 20
0.2129746268797739
 10
0.2489404724459128
 20
0.2141297787997241
 10
0.2480952004861336
 20
0.2158688521357428
 10
0.2477136687901673
 20
0.2161905328716909
 10
0.2469524084461803
 20
0.2161905328716909
 10
0.2461554637260921
 20
0.2161905328716909
 10
0.2457867280860153
 20
0.2161905328716909
 10
0.2457867280860153
 20
0.210622785543773
 10
0.2457867280860153
 20
0.198589267215759
 10
0.2457867280860153
 20
0.1870945632157319
 10
0.2457970041180246
 20
0.1829795952157269
 10
0.2462618123579627
 20
0.1829795952157269
 10
0.2470834612378532
 20
0.1829795952157269
 10
0.2477980579258681
 20
0.1829795952157269
 10
0.248188802358019
 20
0.1836036585516822
 10
0.2489715229981382
 20
0.1852842091117539
 10
0.24996742169402
 20
0.1864237828716915
 10
0.2512066207981327
 20
0.1870103303917609
 10
0.2524494284941756
 20
0.187074646383703
 10
0.2535144910378761
 20
0.1869072097117694
 10
0.2546655969421625
 20
0.186558108543692
 10
0.2559087706139511
 20
0.1860193101276826
 10
0.2612454482460844
 20
0.1833245527116789
 10
0.2832520128780302
 20
0.1722350050476642
 10
0.3098298483179871
 20
0.1588419030397326
 10
0.3261223248300951
 20
0.1506317983837384
 10
0.3285796149898701
 20
0.1493893217197009
 10
0.3304312523101469
 20
0.148307876991689
 10
0.3318585424860814
 20
0.1472982637116669
 10
0.3328835754299533
 20
0.1463705229757428
 10
0.3337919113260721
 20
0.1453816380398196
 10
0.3344698336620979
 20
0.1442652399516771
 10
0.3349314888298984
 20
0.142994365047711
 10
0.3351962398618617
 20
0.1416563530477379
 10
0.3356415362459941
 20
0.1416563530477379
 10
0.3365048464861982
 20
0.1416563530477379
 10
0.3372921541499743
 20
0.1416563530477379
 10
0.337535751582184
 20
0.1420129253676894
 10
0.337535751582184
 20
0.1499675650478389
 10
0.337535751582184
 20
0.1629439289677244
 10
0.337535751582184
 20
0.1736884155517142
 10
0.3374701676219622
 20
0.1760479545518159
 10
0.3368436344940893
 20
0.1760479545518159
 10
0.3359510926619365
 20
0.1760479545518159
 10
0.3352865582462101
 20
0.1760479545518159
 10
0.3349455793741463
 20
0.1748717064397161
 10
0.3341892164940781
 20
0.173152813887735
 10
0.3330497519340518
 20
0.1720425593916719
 10
0.3315291934141111
 20
0.171544958703767
 10
0.3304561177739487
 20
0.1715662227518129
 10
0.3295085266618933
 20
0.1718059467038389
 10
0.3283690758299347
 20
0.1722211556797761
 10
0.3270658799101263
 20
0.1727877520478209
 10
0.3252623433180197
 20
0.1736748947197926
 10
0.3208200093181421
 20
0.1758762887197429
 10
0.3161694409020033
 20
0.1781808732876859
 10
0.3140176851660019
 20
0.1792471735357051
 10
0.3140176851660019
 20
0.1792471735357051
 10
0.3140176851660019
 20
0.1863664831357559
 10
0.3140176851660019
 20
0.2044704128059749
 10
0.3014112399902036
 20
0.2044704128059749
 10
0.3014112399902036
 20
0.1852266657037722
 10
0.2688477634858764
 20
0.2003848687118239
 10
0.3014112399902036
 20
0.2156382866317319
 10
0.3014112399902036
 20
0.2044704128059749
  0
LWPOLYLINE
  5
770
330
1F
100
AcDbEntity
  8
SSB-BLUE
370
     0
100
AcDbPolyline
 90
      107
 70
     1
 43
0.0
 10
0.4207916109180232
 20
0.205999010725904
 10
0.4285992280860143
 20
0.205999010725904
 10
0.4285992280860143
 20
0.2137871382157099
 10
0.4286369510700503
 20
0.2171227448798243
 10
0.4303432594138848
 20
0.2179437045516979
 10
0.4333595290858501
 20
0.2193949288717079
 10
0.4359828107341866
 20
0.2206570737038094
 10
0.4369344447421213
 20
0.2211374975437224
 10
0.4377228930780373
 20
0.221522179815782
 10
0.4384106228221292
 20
0.2217681422078099
 10
0.4389855845341391
 20
0.2218874338477539
 10
0.4396787418300843
 20
0.2218608099517851
 10
0.4404997333259076
 20
0.2214796785517379
 10
0.4411625408221643
 20
0.2207115835357039
 10
0.4416751970701079
 20
0.219566565375704
 10
0.441922933493963
 20
0.2190279351277242
 10
0.4423274876701396
 20
0.2190279351277242
 10
0.4428160774861354
 20
0.2190279351277242
 10
0.4431155875019073
 20
0.2190279351277242
 10
0.4431290134860877
 20
0.2210559351277475
 10
0.4431290134860877
 20
0.2276104311277276
 10
0.4431290134860877
 20
0.2347976631277424
 10
0.4431290134860877
 20
0.2385048471277473
 10
0.4429410528300224
 20
0.2385279351277942
 10
0.4424815523339217
 20
0.2385279351277942
 10
0.4420220521499623
 20
0.2385279351277942
 10
0.4418201971979113
 20
0.2384629704877632
 10
0.4416046351500356
 20
0.2376537807037771
 10
0.4413186316140152
 20
0.2369310975997259
 10
0.4409541541500222
 20
0.2363250444637819
 10
0.4405135939261733
 20
0.2358435953917493
 10
0.4399377944941563
 20
0.2353402810477227
 10
0.4391383129021503
 20
0.2348141042798169
 10
0.4381091247421712
 20
0.2342590403677196
 10
0.4361310269581012
 20
0.2332921089998159
 10
0.4244000846701788
 20
0.2274801224558089
 10
0.4076885091660572
 20
0.2192005272877919
 10
0.3952460480702022
 20
0.2130360250477778
 10
0.3929202927419748
 20
0.2118997915597767
 10
0.3919335914938742
 20
0.2115128179597923
 10
0.3910812848700722
 20
0.2112725969918072
 10
0.3903754219979873
 20
0.211169087871844
 10
0.3894864113821601
 20
0.2112353030078475
 10
0.3886041639900313
 20
0.2116094293837349
 10
0.3878831900220696
 20
0.2123314370078368
 10
0.3873275061658585
 20
0.2134334568878344
 10
0.3871012159979301
 20
0.2136387750397901
 10
0.3866662099981468
 20
0.2136387750397901
 10
0.3862108132379962
 20
0.2136387750397901
 10
0.3860001071580541
 20
0.2136387750397901
 10
0.3860001071580541
 20
0.2101333929516826
 10
0.3860001071580541
 20
0.202557244215769
 10
0.3860001071580541
 20
0.1953203262157093
 10
0.3860059789980301
 20
0.1927295952157619
 10
0.3862715836619745
 20
0.1927295952157619
 10
0.3867410974860945
 20
0.1927295952157619
 10
0.3871494384058778
 20
0.1927295952157619
 10
0.3873824109901491
 20
0.1931255085518071
 10
0.3878853272221683
 20
0.1941958766557992
 10
0.3885430291499361
 20
0.1949260873837994
 10
0.3893675655901472
 20
0.1953040916076869
 10
0.3901581261660727
 20
0.1953429147037564
 10
0.3907934486460647
 20
0.1952153051438099
 10
0.3914945781660464
 20
0.194966277039784
 10
0.3922695474779925
 20
0.1946078795198041
 10
0.3956135216701497
 20
0.1929096313837144
 10
0.4093862162939779
 20
0.1859251201358125
 10
0.4260198170701753
 20
0.1774897652077794
 10
0.4362163792381857
 20
0.1723188088717364
 10
0.4377250758301514
 20
0.1715236500397719
 10
0.4388575612619939
 20
0.1708222927597163
 10
0.4397303719021082
 20
0.1701689775516701
 10
0.4403495315342046
 20
0.1695777621996974
 10
0.4408995051658629
 20
0.1689942807037639
 10
0.4413246922141223
 20
0.1682950858956769
 10
0.4416340214939112
 20
0.1674684481356961
 10
0.4418356246618558
 20
0.1665835992876961
 10
0.4420818048301332
 20
0.1665835992876961
 10
0.442559082150158
 20
0.1665835992876961
 10
0.4429943414940248
 20
0.1665835992876961
 10
0.4431290134860877
 20
0.1668092701357899
 10
0.4431290134860877
 20
0.1718436852877074
 10
0.4431290134860877
 20
0.1800563009198219
 10
0.4431290134860877
 20
0.1868563830397649
 10
0.4430927556539537
 20
0.1883497123837543
 10
0.4427463794940039
 20
0.1883497123837543
 10
0.442252941822126
 20
0.1883497123837543
 10
0.4418855568301652
 20
0.1883497123837543
 10
0.4416588788460114
 20
0.1875861176556972
 10
0.4411692634859393
 20
0.1864835015438348
 10
0.440469559806127
 20
0.1857825245916897
 10
0.4395637844941689
 20
0.1854731457036793
 10
0.4389049515659487
 20
0.1854779483196829
 10
0.4383118564141669
 20
0.1855960137998274
 10
0.437607847445916
 20
0.1858237578878059
 10
0.4368049731661117
 20
0.186171221367788
 10
0.4356730190700393
 20
0.1867432353036875
 10
0.4328784350700357
 20
0.1881603003036769
 10
0.429952854749903
 20
0.189643790415829
 10
0.4285992280860143
 20
0.190330181367754
 10
0.4285992280860143
 20
0.190330181367754
 10
0.4285992280860143
 20
0.1948188582877339
 10
0.4285992280860143
 20
0.205999010725904
 10
0.4207916109180232
 20
0.205999010725904
 10
0.4207916109180232
 20
0.1940626030477723
 10
0.4003585056541521
 20
0.2036983452156909
 10
0.4207916109180232
 20
0.2132960015437995
  0
LWPOLYLINE
  5
771
330
1F
100
AcDbEntity
  8
SSB-BLUE
370
     0
100
AcDbPolyline
 90
      206
 70
     1
 43
0.0
 10
0.3946837008299475
 20
0.3603458063677181
 10
0.3946837008299475
 20
0.3603458063677181
 10
0.3947413562460245
 20
0.3588350618077394
 10
0.3948734670300027
 20
0.3573678892957632
 10
0.3950804500138751
 20
0.3559452884797203
 10
0.395362721406066
 20
0.3545682583837877
 10
0.3957206977260661
 20
0.3532377992798175
 10
0.3961547954940876
 20
0.3519549098796739
 10
0.396665430918194
 20
0.3507205901437871
 10
0.3972530208300213
 20
0.349535839719719
 10
0.3979179817501333
 20
0.3484016579437945
 10
0.3986607295741038
 20
0.3473190444637639
 10
0.3994816814460602
 20
0.3462889986157709
 10
0.4004794409099884
 20
0.3451405958796689
 10
0.401562027869943
 20
0.3440827395997719
 10
0.4027158400621929
 20
0.3431391349116994
 10
0.4039398787741657
 20
0.3423085322557204
 10
0.4052331437340034
 20
0.3415896823837112
 10
0.4065946356059272
 20
0.3409813357357603
 10
0.408023355054139
 20
0.3404822430637422
 10
0.4095183024300085
 20
0.3400911551197119
 10
0.4110784780859582
 20
0.3398068217198329
 10
0.4127028829979853
 20
0.3396279942397324
 10
0.4143905168938851
 20
0.3395534231198454
 10
0.4153508903341124
 20
0.3395579283997279
 10
0.416084271918173
 20
0.3395879927197791
 10
0.4168092500942127
 20
0.3396422311117071
 10
0.417526824510162
 20
0.3397212260798401
 10
0.4182379941900223
 20
0.33982556106369
 10
0.4189437594060035
 20
0.3399558188797194
 10
0.4196451191821069
 20
0.3401125826558333
 10
0.4203430728541236
 20
0.3402964355197495
 10
0.4210386206938992
 20
0.3405079605997203
 10
0.421732761414015
 20
0.340747740711687
 10
0.4224264952859631
 20
0.341016358983719
 10
0.4231375950779981
 20
0.3413175878077972
 10
0.4238436039660272
 20
0.3416492122957209
 10
0.424532490918157
 20
0.3420093882156925
 10
0.4252034238300375
 20
0.3423980322637821
 10
0.4258555690380419
 20
0.3428150608237379
 10
0.4264880941260359
 20
0.3432603909037599
 10
0.4271001657421767
 20
0.3437339388877794
 10
0.4276909511581924
 20
0.3442356220957823
 10
0.4282596173340263
 20
0.3447653565997379
 10
0.4288053315421081
 20
0.3453230594078409
 10
0.4293272607420314
 20
0.3459086472158068
 10
0.4300276863898685
 20
0.3467396788716819
 10
0.430823813670088
 20
0.3477894534156762
 10
0.4315411447261273
 20
0.3488880384877797
 10
0.4321795965660123
 20
0.3500346840397324
 10
0.43273908557385
 20
0.3512286403357798
 10
0.4332195284458802
 20
0.3524691582637063
 10
0.4336208425019166
 20
0.3537554877757874
 10
0.4339429435021352
 20
0.355086879135726
 10
0.4341857490781323
 20
0.3564625832318455
 10
0.4343491753018771
 20
0.3578818497037535
 10
0.4344331391821044
 20
0.3593439294397775
 10
0.4344344217059764
 20
0.3597842602254575
 10
0.4441167330093432
 20
0.3597842602254575
 10
0.4441160838299041
 20
0.3586060332157546
 10
0.4439038467659096
 20
0.3551249253516744
 10
0.4434671974621978
 20
0.3518281932637937
 10
0.4428064685098807
 20
0.348715336815661
 10
0.4419219937500412
 20
0.3457858571197239
 10
0.4408141060859184
 20
0.3430392534157844
 10
0.4394831390461072
 20
0.3404750268157599
 10
0.4379294252220661
 20
0.3380926771837229
 10
0.4361532978298897
 20
0.3358917043837559
 10
0.4341550903981642
 20
0.3338716092158078
 10
0.4319351361419184
 20
0.332031891855749
 10
0.4298994175739069
 20
0.3306417212558079
 10
0.4285911675661272
 20
0.329895549543834
 10
0.4272673319100271
 20
0.3292173454717027
 10
0.4259273284139394
 20
0.3286081089998341
 10
0.4245705733258643
 20
0.3280688391517019
 10
0.423196483829873
 20
0.3276005358877239
 10
0.4218044771100189
 20
0.3272041988558394
 10
0.4203939697260921
 20
0.3268808270796839
 10
0.4189643785500188
 20
0.3266314202077263
 10
0.4175151210779973
 20
0.326456977887716
 10
0.4160456138701676
 20
0.3263584997677515
 10
0.4143599190539789
 20
0.3263389030476729
 10
0.4120267297020473
 20
0.3264511955917841
 10
0.409767255654117
 20
0.3267189702158371
 10
0.4075827458461668
 20
0.3271422269198325
 10
0.405474450149896
 20
0.3277209657037652
 10
0.4034436178141388
 20
0.3284551862556784
 10
0.401491498085953
 20
0.3293448888877082
 10
0.3996193408381021
 20
0.330390073911814
 10
0.3978283950058561
 20
0.331590740703728
 10
0.3961199101501922
 20
0.332946889263793
 10
0.3944951358299597
 20
0.3344585202157599
 10
0.3929595888299744
 20
0.3361127336077088
 10
0.3915683855101388
 20
0.3377896000718277
 10
0.3903073058461572
 20
0.3395691959677869
 10
0.3891768496619932
 20
0.3414523537117189
 10
0.3881775167819636
 20
0.3434399066558225
 10
0.3873098067178962
 20
0.3455326875278359
 10
0.3865742192941077
 20
0.3477315293678149
 10
0.3859712543338567
 20
0.350037265215823
 10
0.3855014116621653
 20
0.3524507277997779
 10
0.3851651911019331
 20
0.3549727504716973
 10
0.3849630921660552
 20
0.3576041653357551
 10
0.3848956149899205
 20
0.3603458063677181
 10
0.3848956149899205
 20
0.3603458063677181
 10
0.3850569835741417
 20
0.3639497408317798
 10
0.3854375355901833
 20
0.3673579717357951
 10
0.3860361883981405
 20
0.3705709985917629
 10
0.3868518587341914
 20
0.3735893215357917
 10
0.3878834639580777
 20
0.376413439767739
 10
0.3891299211181227
 20
0.3790438531117459
 10
0.3905901478861988
 20
0.3814810617037443
 10
0.3922630609981326
 20
0.3837255653676879
 10
0.3941475778140209
 20
0.3857778633038009
 10
0.3962426153821816
 20
0.3876384556476626
 10
0.3985470910620012
 20
0.3893078422237526
 10
0.3999793585738658
 20
0.3902172638797392
 10
0.4013054443738682
 20
0.3909686082396719
 10
0.4026506879098762
 20
0.3916397682877042
 10
0.4040159219101618
 20
0.392231410143709
 10
0.4054019794140747
 20
0.3927442005518316
 10
0.4068096934620283
 20
0.3931788059437329
 10
0.408239896781943
 20
0.3935358921276784
 10
0.4096934224138771
 20
0.3938161258478141
 10
0.4111711030860992
 20
0.3940201735358002
 10
0.4126737721501037
 20
0.3941487009997209
 10
0.4142022623341575
 20
0.3942023752956869
 10
0.4153710233818764
 20
0.3941927469757145
 10
0.4164253025821854
 20
0.3941444762077442
 10
0.4174709933578776
 20
0.3940587045998018
 10
0.4185074292781792
 20
0.3939356817517279
 10
0.4195339439102029
 20
0.3937756581997922
 10
0.4205498708221072
 20
0.393578883543829
 10
0.421554543894203
 20
0.3933456073836803
 10
0.4225472966939386
 20
0.3930760802557866
 10
0.4235274627901973
 20
0.3927705511357144
 10
0.4244943757500846
 20
0.3924292708716779
 10
0.4254473697660366
 20
0.392052488439786
 10
0.4264849735021202
 20
0.3915996918878362
 10
0.427543904933966
 20
0.3910925146717279
 10
0.428572480326185
 20
0.3905510477196694
 10
0.4295713661099044
 20
0.3899747088398229
 10
0.4305412284058843
 20
0.3893629142798343
 10
0.4314827336459537
 20
0.3887150812237721
 10
0.43239654857409
 20
0.3880306265437268
 10
0.4332833389982014
 20
0.3873089674237775
 10
0.4341437716619013
 20
0.386549520423693
 10
0.4349785126859587
 20
0.3857517027277248
 10
0.4357882285021973
 20
0.384914931207792
 10
0.4369123195741392
 20
0.3836150165917944
 10
0.4382051892299739
 20
0.3818886803437182
 10
0.4393728773101913
 20
0.3800608177358162
 10
0.4404146340781257
 20
0.3781310128718029
 10
0.4413297101099794
 20
0.3760988486077279
 10
0.4421173556701543
 20
0.3739639093598042
 10
0.4427768210220009
 20
0.371725777671756
 10
0.4433073567420643
 20
0.3693840379597999
 10
0.4437082130940447
 20
0.3669382730798079
 10
0.4439786400298562
 20
0.3643880671358453
 10
0.4441178884381892
 20
0.3617330032957486
 10
0.4441167637975596
 20
0.3597842602254575
 10
0.4344344217059764
 20
0.3597842602254575
 10
0.4344375599100321
 20
0.3608617042957896
 10
0.4343624303100207
 20
0.3623707022797209
 10
0.4342078290058833
 20
0.363827992815672
 10
0.433973839302082
 20
0.3652336601438089
 10
0.4336605445020183
 20
0.3665877866318379
 10
0.4332680282219492
 20
0.3678904562077871
 10
0.4327963731420575
 20
0.3691417518638049
 10
0.4322456628778877
 20
0.3703417569038336
 10
0.4316159807339073
 20
0.3714905546318041
 10
0.4309074097020869
 20
0.3725882286637896
 10
0.4301200337101108
 20
0.3736348616798022
 10
0.4292168033821238
 20
0.3747009441517495
 10
0.4281678880861293
 20
0.3758175400477874
 10
0.4270521529980674
 20
0.3768243359678109
 10
0.4258708467421464
 20
0.37772158213577
 10
0.4246252195021967
 20
0.3785095278397152
 10
0.4233165199020661
 20
0.3791884233037699
 10
0.4219459975020179
 20
0.3797585184397443
 10
0.4205149021741015
 20
0.3802200631597889
 10
0.419024483166087
 20
0.380573307063754
 10
0.417475989413962
 20
0.3808185003757582
 10
0.4158706707901292
 20
0.3809558926958179
 10
0.4142136150779177
 20
0.3809857329996848
 10
0.4125822825178709
 20
0.3809081220637695
 10
0.4110065720701943
 20
0.3807228492878343
 10
0.4094873161499529
 20
0.380429664135784
 10
0.408025348110062
 20
0.3800283176317043
 10
0.4066215006780763
 20
0.3795185592396839
 10
0.4052766065819231
 20
0.3789001390477509
 10
0.4039914994859278
 20
0.3781728077678377
 10
0.4027670114940989
 20
0.3773363148636859
 10
0.4016039759579151
 20
0.3763904107358122
 10
0.4005032259181469
 20
0.3753348454716976
 10
0.3994816589820154
 20
0.3741943007678099
 10
0.3986586731820729
 20
0.3731761586557489
 10
0.3979112996459317
 20
0.372107855367803
 10
0.3972401215020209
 20
0.370990056711717
 10
0.3966457221901969
 20
0.3698234294318121
 10
0.3961286842139078
 20
0.3686086396477872
 10
0.3956895910140829
 20
0.3673463537918264
 10
0.3953290254059372
 20
0.366037238295764
 10
0.3950475705179102
 20
0.3646819595917945
 10
0.3948458094780776
 20
0.3632811834878176
 10
0.3947243251020165
 20
0.3618355770397796
  0
LWPOLYLINE
  5
772
330
1F
100
AcDbEntity
  8
SSB-BLUE
370
     0
100
AcDbPolyline
 90
        2
 70
     1
 43
0.0
 10
0.4181827243260461
 20
0.0954581108798172
 10
0.4181827243260461
 20
0.0954581108798172
  0
LWPOLYLINE
  5
773
330
1F
100
AcDbEntity
  8
SSB-BLUE
370
     0
100
AcDbPolyline
 90
      100
 70
     1
 43
0.0
 10
0.4228080925019491
 20
0.0954581108798172
 10
0.4308416269979105
 20
0.0954581108798172
 10
0.433836044502197
 20
0.0948773132078076
 10
0.433836044502197
 20
0.082343125047788
 10
0.433836044502197
 20
0.0668272358796776
 10
0.4338183385021619
 20
0.0631993900477239
 10
0.4336453176541557
 20
0.0625664712157095
 10
0.4332792025018915
 20
0.0620235840396672
 10
0.4328277506700875
 20
0.0615924902076941
 10
0.4321608728221716
 20
0.0612177866316968
 10
0.4312156076699943
 20
0.0609526608878319
 10
0.4310938571581922
 20
0.0606432826237473
 10
0.4310938571581922
 20
0.060023427543694
 10
0.4311632528221186
 20
0.0597335015437279
 10
0.4363222945021726
 20
0.0597335015437279
 10
0.4437913551658763
 20
0.0597335015437279
 10
0.4459473728222143
 20
0.059781182631725
 10
0.4459473728222143
 20
0.0602973828878302
 10
0.4459473728222143
 20
0.060850898967658
 10
0.4453503377341726
 20
0.0610521888876896
 10
0.4444574923259666
 20
0.0613752296318291
 10
0.4438483647420437
 20
0.0617746785518323
 10
0.4434630775021411
 20
0.0622523873677992
 10
0.4432151947498486
 20
0.0628379208877741
 10
0.4431290134860877
 20
0.0635040093757029
 10
0.4431290134860877
 20
0.076839925215773
 10
0.4431290134860877
 20
0.100002305703816
 10
0.4431054768299259
 20
0.1086358452158329
 10
0.4425975361499824
 20
0.1086358452158329
 10
0.4419687634859564
 20
0.1086358452158329
 10
0.4416973478221014
 20
0.1082385425436918
 10
0.441325507157945
 20
0.107508451623703
 10
0.4408648195019858
 20
0.1069921855358009
 10
0.4403345464859108
 20
0.1066555874558395
 10
0.4396796463179573
 20
0.1064384388877109
 10
0.4388529754861814
 20
0.1063515993038209
 10
0.4270784586540337
 20
0.1063506888878019
 10
0.4021268336700921
 20
0.1063506888878019
 10
0.3903603826620596
 20
0.1063515993038209
 10
0.3895293023340223
 20
0.1064384388877109
 10
0.3887989153259355
 20
0.1066555874558395
 10
0.3882276626701451
 20
0.1069921855358009
 10
0.3877792163341933
 20
0.107508451623703
 10
0.3874065859980895
 20
0.1082385425436918
 10
0.3871262321579802
 20
0.1086358452158329
 10
0.3865159526698996
 20
0.1086358452158329
 10
0.3860229514858755
 20
0.1086358452158329
 10
0.3860001071580541
 20
0.1001771620478129
 10
0.3860001071580541
 20
0.077483893215673
 10
0.3860001071580541
 20
0.0644180717197749
 10
0.3859355449980217
 20
0.0636635315436909
 10
0.3857205355021165
 20
0.0630807617198235
 10
0.3852995379899617
 20
0.062665126551817
 10
0.384656121917935
 20
0.0622244462078197
 10
0.3838249429980927
 20
0.0618797202158339
 10
0.3832388765821832
 20
0.0616447258716599
 10
0.3832388765821832
 20
0.0611790693037904
 10
0.3832388765821832
 20
0.0607448055518232
 10
0.3854059505818643
 20
0.0607046929598392
 10
0.3929133142380685
 20
0.0607046929598392
 10
0.3980988125821234
 20
0.0607046929598392
 10
0.3981685642379702
 20
0.0609485989598362
 10
0.3981685642379702
 20
0.0614700642157695
 10
0.3980528596621511
 20
0.0617461548877021
 10
0.3971012437500949
 20
0.0620619235357074
 10
0.3963598989901129
 20
0.0624546925357681
 10
0.3958863123179377
 20
0.062890831719729
 10
0.3955819953179915
 20
0.0633801478717393
 10
0.3954245716621152
 20
0.0640649267197571
 10
0.3954073336620993
 20
0.067646235879737
 10
0.3954073336620993
 20
0.082718285703737
 10
0.3954073336620993
 20
0.0948939272076839
 10
0.3980010383339518
 20
0.0954581108798172
 10
0.4049595256621732
 20
0.0954581108798172
 10
0.4089659273339219
 20
0.0954581108798172
 10
0.4089659273339219
 20
0.089499151119731
 10
0.4089659273339219
 20
0.07914937854384
 10
0.4089622713178543
 20
0.0751334643037369
 10
0.4088553258301904
 20
0.074465500383818
 10
0.4086003023339373
 20
0.0738650601277513
 10
0.4081717631581548
 20
0.0733821243758319
 10
0.4075147239179735
 20
0.073039734951827
 10
0.4066509678300215
 20
0.0727950767196619
 10
0.4063189549021296
 20
0.072560180967832
 10
0.4063189549021296
 20
0.0719377593758219
 10
0.4063189549021296
 20
0.0715078392877819
 10
0.4098164749021649
 20
0.0715020563677529
 10
0.4172940909179861
 20
0.0715020563677529
 10
0.4207916109180232
 20
0.0715078392877819
 10
0.4207916109180232
 20
0.0719377593758219
 10
0.4207916109180232
 20
0.072560180967832
 10
0.4204635248218907
 20
0.0727950767196619
 10
0.4195937795819944
 20
0.073039734951827
 10
0.4189497055019729
 20
0.0733821243758319
 10
0.4185483493260325
 20
0.0738650601277513
 10
0.4182933258301294
 20
0.074465500383818
 10
0.4181863806538964
 20
0.0751334643037369
 10
0.4181827243260461
 20
0.07914937854384
 10
0.4181827243260461
 20
0.089499151119731
 10
0.4181827243260461
 20
0.0954581108798172
  0
LWPOLYLINE
  5
774
330
1F
100
AcDbEntity
  8
SSB-BLUE
370
     0
100
AcDbPolyline
 90
        2
 70
     1
 43
0.0
 10
0.4265997164938931
 20
0.1424942437118259
 10
0.4265997164938931
 20
0.1424942437118259
  0
LWPOLYLINE
  5
775
330
1F
100
AcDbEntity
  8
SSB-BLUE
370
     0
100
AcDbPolyline
 90
      100
 70
     1
 43
0.0
 10
0.4213509982140878
 20
0.1400424615998324
 10
0.4098038179980108
 20
0.1346485407038429
 10
0.3982566377819356
 20
0.1292546198076749
 10
0.3930079195021268
 20
0.1268028373837211
 10
0.3920045933339082
 20
0.1263440207917679
 10
0.3911369478541484
 20
0.1260030328717629
 10
0.3904049839978523
 20
0.1257905845837639
 10
0.3898087008300166
 20
0.1257173881356719
 10
0.3889226077259842
 20
0.1259045450797629
 10
0.3882043306860865
 20
0.1264576836396829
 10
0.387650299494064
 20
0.1273643075917121
 10
0.38725694299794
 20
0.1286119194637427
 10
0.3870605623979575
 20
0.1286119194637427
 10
0.386628525077997
 20
0.1286119194637427
 10
0.3861964877580366
 20
0.1286119194637427
 10
0.3860001071580541
 20
0.1286119194637427
 10
0.3860001071580541
 20
0.1254609032317591
 10
0.3860001071580541
 20
0.118528667583826
 10
0.3860001071580541
 20
0.1115964319357179
 10
0.3860001071580541
 20
0.1084454157037369
 10
0.3861964877580366
 20
0.1084454157037369
 10
0.386628525077997
 20
0.1084454157037369
 10
0.3870605623979575
 20
0.1084454157037369
 10
0.38725694299794
 20
0.1084454157037369
 10
0.387445587558151
 20
0.1093324014396959
 10
0.3876806489819682
 20
0.1100712090158016
 10
0.3879799808460689
 20
0.110692188231738
 10
0.3883614351660718
 20
0.1112256888877301
 10
0.3889937212619685
 20
0.1115803642477022
 10
0.3899777071739869
 20
0.112120708623678
 10
0.3913151781659714
 20
0.1128324395916724
 10
0.3930079195021268
 20
0.1137012750398219
 10
0.3996908116138584
 20
0.1168731194557369
 10
0.4143931735741635
 20
0.1238511772957525
 10
0.4290955355341169
 20
0.1308292351357609
 10
0.4357784273340642
 20
0.1340010795516759
 10
0.4370147326379197
 20
0.1345789147838019
 10
0.4380135959579477
 20
0.134996074695751
 10
0.4387803730860469
 20
0.1352489890717869
 10
0.4393204195019838
 20
0.1353340873836863
 10
0.4402541200619475
 20
0.1351632957756941
 10
0.4409914400219268
 20
0.1346533011997568
 10
0.441521667798126
 20
0.1338076744957251
 10
0.4418340914938952
 20
0.1326299858796762
 10
0.4420364231819374
 20
0.1326299858796762
 10
0.4424815523339217
 20
0.1326299858796762
 10
0.4429266817980473
 20
0.1326299858796762
 10
0.4431290134860877
 20
0.1326299858796762
 10
0.4431290134860877
 20
0.1358018302957689
 10
0.4431290134860877
 20
0.1427798881357765
 10
0.4431290134860877
 20
0.1497579459757894
 10
0.4431290134860877
 20
0.1529297907038414
 10
0.4429266817980473
 20
0.1529297907038414
 10
0.4424815523339217
 20
0.1529297907038414
 10
0.4420364231819374
 20
0.1529297907038414
 10
0.4418340914938952
 20
0.1529297907038414
 10
0.4415204775179423
 20
0.1517339517998089
 10
0.4409819187179523
 20
0.1509040948237503
 10
0.4402219853101919
 20
0.1504205818717299
 10
0.4392442478220016
 20
0.1502637750398241
 10
0.438732170333962
 20
0.1503444101917459
 10
0.4379897922299847
 20
0.1505803642476673
 10
0.4370081865661924
 20
0.1509627115117329
 10
0.4357784273340642
 20
0.151482525039718
 10
0.4290955355341169
 20
0.1546960258236769
 10
0.4143931735741635
 20
0.1617657280478433
 10
0.3996908116138584
 20
0.1688354302718347
 10
0.3930079195021268
 20
0.172048931367752
 10
0.3913151781659714
 20
0.1728668861676939
 10
0.3899777071739869
 20
0.1735509452317689
 10
0.3889937212619685
 20
0.1741028938238243
 10
0.3883614351660718
 20
0.1745245172077094
 10
0.3879799808460689
 20
0.1749717292718023
 10
0.3876806489819682
 20
0.1755314142157642
 10
0.387445587558151
 20
0.1762303506876739
 10
0.38725694299794
 20
0.1770953179596972
 10
0.3870605623979575
 20
0.1770953179596972
 10
0.386628525077997
 20
0.1770953179596972
 10
0.3861964877580366
 20
0.1770953179596972
 10
0.3860001071580541
 20
0.1770953179596972
 10
0.3860001071580541
 20
0.1738312341757791
 10
0.3860001071580541
 20
0.1666502496637072
 10
0.3860001071580541
 20
0.1594692651518077
 10
0.3860001071580541
 20
0.1562051813677172
 10
0.3861964877580366
 20
0.1562051813677172
 10
0.386628525077997
 20
0.1562051813677172
 10
0.3870605623979575
 20
0.1562051813677172
 10
0.38725694299794
 20
0.1562051813677172
 10
0.387650299494064
 20
0.1574399987438433
 10
0.3882043306860865
 20
0.158299907871692
 10
0.3889226077259842
 20
0.1588027610797376
 10
0.3898087008300166
 20
0.1589664116318019
 10
0.3904049839978523
 20
0.1589196968077999
 10
0.3911369478541484
 20
0.1587640802557209
 10
0.3920045933339082
 20
0.1584763529196644
 10
0.3930079195021268
 20
0.1580333063678241
 10
0.3982566377819356
 20
0.1556053276718341
 10
0.4098038179980108
 20
0.1502637750398241
 10
0.4213509982140878
 20
0.1449222220956789
 10
0.4265997164938931
 20
0.1424942437118259
  0
LWPOLYLINE
  5
776
330
1F
100
AcDbEntity
  8
SSB-BLUE
370
     0
100
AcDbPolyline
 90
        2
 70
     1
 43
0.0
 10
0.4028721773339221
 20
0.2804986381358159
 10
0.4028721773339221
 20
0.2804986381358159
  0
LWPOLYLINE
  5
777
330
1F
100
AcDbEntity
  8
SSB-BLUE
370
     0
100
AcDbPolyline
 90
      100
 70
     1
 43
0.0
 10
0.4159530001020464
 20
0.2856149277037776
 10
0.4341683513341046
 20
0.2927394804637089
 10
0.4372256752139166
 20
0.2940043705837238
 10
0.4385853184858775
 20
0.2944574635357329
 10
0.4396241455739372
 20
0.2944664010877069
 10
0.4409373248699371
 20
0.2935302460237015
 10
0.4418344774379968
 20
0.2915435601276881
 10
0.4423655688300024
 20
0.2915435601276881
 10
0.4430690508299371
 20
0.2915435601276881
 10
0.4431290134860877
 20
0.295463517207768
 10
0.4431290134860877
 20
0.3064369649917795
 10
0.4430401714860182
 20
0.309691509375666
 10
0.4423086260220526
 20
0.309691509375666
 10
0.4418083592939653
 20
0.3095828734717214
 10
0.4409538493261263
 20
0.3077626373917193
 10
0.4394740015019778
 20
0.3069522370477689
 10
0.4383377396221313
 20
0.3070369406797599
 10
0.4366785651181928
 20
0.3076230464077483
 10
0.4319718991018942
 20
0.3094446250238079
 10
0.4079360836619923
 20
0.3186456657037109
 10
0.3929307628379881
 20
0.3243866725597719
 10
0.3906492921660636
 20
0.3253605156637169
 10
0.3891127333500677
 20
0.3262435159117603
 10
0.3881666204940579
 20
0.3271632363757622
 10
0.3875223545339423
 20
0.3284042017117823
 10
0.3871494384058778
 20
0.3292676813676829
 10
0.3864244929902014
 20
0.3292676813676829
 10
0.3860001071580541
 20
0.3291762213756684
 10
0.3860001071580541
 20
0.3203594657917028
 10
0.3860001071580541
 20
0.3102396422078177
 10
0.3863203817098686
 20
0.309691509375666
 10
0.3870745106701463
 20
0.309691509375666
 10
0.3875485793821927
 20
0.3105738893678129
 10
0.3885799197181896
 20
0.3119246219198333
 10
0.3899810015821181
 20
0.3123177250716926
 10
0.390969331157887
 20
0.3121614888878179
 10
0.3922728646619564
 20
0.311751737727695
 10
0.4006991631660668
 20
0.3086308750476689
 10
0.4187659493579244
 20
0.3019411582477183
 10
0.4196644195019541
 20
0.2991790287998119
 10
0.4018136093821348
 20
0.2920856217518048
 10
0.3921613084380375
 20
0.2882357055518119
 10
0.3908023659178958
 20
0.2876976890078371
 10
0.3899840448300722
 20
0.2875105797996689
 10
0.3886362775259382
 20
0.2878431852157144
 10
0.3875954945101352
 20
0.2891838345517144
 10
0.3871139427899113
 20
0.2902676813677178
 10
0.3863714869981862
 20
0.2902676813677178
 10
0.3860001071580541
 20
0.2899799973997679
 10
0.3860001071580541
 20
0.2800035209677158
 10
0.3860001071580541
 20
0.270027044847799
 10
0.3863714869981862
 20
0.2697393608796759
 10
0.3871139427899113
 20
0.2697393608796759
 10
0.3876748123980462
 20
0.2708179205437649
 10
0.3888655170299628
 20
0.2721729855276909
 10
0.3902777416620324
 20
0.2725145740477259
 10
0.3910854725340531
 20
0.2723267615916889
 10
0.3923765728380122
 20
0.2719078276477385
 10
0.4019451214382031
 20
0.268263668583776
 10
0.4196842243260673
 20
0.261494212383794
 10
0.4188375936061153
 20
0.258784399095779
 10
0.4010893656539914
 20
0.2520719281358019
 10
0.3927257086378653
 20
0.248911824903792
 10
0.3910997228219575
 20
0.2484092933676809
 10
0.3899173885259106
 20
0.2482228103437372
 10
0.3885283860540696
 20
0.2486518655677719
 10
0.3875413749899792
 20
0.250190125095834
 10
0.3870745106701463
 20
0.2512295952157979
 10
0.3863203817098686
 20
0.2512295952157979
 10
0.3860001071580541
 20
0.2506851948397992
 10
0.3860001071580541
 20
0.2406342805117969
 10
0.3860001071580541
 20
0.2318775612156969
 10
0.3864244929902014
 20
0.2317867242877698
 10
0.3871494384058778
 20
0.2317867242877698
 10
0.3875919804539833
 20
0.2327004889837569
 10
0.3882581144941035
 20
0.2339328964717966
 10
0.3890891314860276
 20
0.234741630735809
 10
0.3905772026940415
 20
0.235592315271707
 10
0.3929208880381356
 20
0.236573982711799
 10
0.4079360836619923
 20
0.2423805563677339
 10
0.4319718991018942
 20
0.2516903561916939
 10
0.4366790842858812
 20
0.2534862097838229
 10
0.4384639829339463
 20
0.254027877663745
 10
0.4397163865020968
 20
0.2540987790398441
 10
0.4410508969259653
 20
0.2532131370877897
 10
0.4418128854779138
 20
0.2511982959997923
 10
0.4423086260220526
 20
0.251077251543693
 10
0.4430401714860182
 20
0.251077251543693
 10
0.4431290134860877
 20
0.2543898516397469
 10
0.4431290134860877
 20
0.2655590485358239
 10
0.4430690508299371
 20
0.269548931367753
 10
0.4423655688300024
 20
0.269548931367753
 10
0.4418344774379968
 20
0.269548931367753
 10
0.4410942274860013
 20
0.267637250895751
 10
0.4396749709980981
 20
0.2667545707598364
 10
0.4384332013259993
 20
0.2667862443757842
 10
0.4367940247741196
 20
0.2673366164317699
 10
0.4334832969900884
 20
0.2686904621197526
 10
0.4156666686541577
 20
0.275563189695796
 10
0.4028721773339221
 20
0.2804986381358159
  0
LWPOLYLINE
  5
778
330
1F
100
AcDbEntity
  8
SSB-BLUE
370
     0
100
AcDbPolyline
 90
        2
 70
     1
 43
0.0
 10
0.4103370213178828
 20
0.4435635795517792
 10
0.4103370213178828
 20
0.4435635795517792
  0
LWPOLYLINE
  5
779
330
1F
100
AcDbEntity
  8
SSB-BLUE
370
     0
100
AcDbPolyline
 90
        2
 70
     1
 43
0.0
 10
0.4199727634861592
 20
0.4435635795517792
 10
0.4199727634861592
 20
0.4435635795517792
  0
LWPOLYLINE
  5
77A
330
1F
100
AcDbEntity
  8
SSB-BLUE
370
     0
100
AcDbPolyline
 90
        2
 70
     1
 43
0.0
 10
0.423095810166144
 20
0.4727374078717279
 10
0.423095810166144
 20
0.4727374078717279
  0
LWPOLYLINE
  5
77B
330
1F
100
AcDbEntity
  8
SSB-BLUE
370
     0
100
AcDbPolyline
 90
      100
 70
     1
 43
0.0
 10
0.4258833108301428
 20
0.4708993996477498
 10
0.4313411901659859
 20
0.467300610375685
 10
0.4351125145019453
 20
0.4648138933117574
 10
0.4353966394861822
 20
0.4648533017198089
 10
0.4357320532139362
 20
0.4653032469037229
 10
0.4360224481499806
 20
0.4656928013678341
 10
0.4357063172701175
 20
0.4661447942078079
 10
0.4352498837342172
 20
0.466804007463761
 10
0.4350205200540139
 20
0.4673758185996802
 10
0.4349971135021776
 20
0.4678794131198299
 10
0.4353003675180851
 20
0.4687972927837923
 10
0.4360045081499387
 20
0.4702645105358219
 10
0.4372689670861494
 20
0.4724637205358109
 10
0.4395773040780693
 20
0.4768240521997545
 10
0.4413443182619297
 20
0.4806762213518275
 10
0.4425870292379326
 20
0.4840474590397533
 10
0.4433990710140492
 20
0.4873008830318178
 10
0.4439393458139805
 20
0.4909038128556871
 10
0.4441952341738862
 20
0.494903346471812
 10
0.4439481657422065
 20
0.501748837383774
 10
0.4424936155019008
 20
0.509196876111683
 10
0.4397935837261624
 20
0.5157131368237966
 10
0.4366587896219816
 20
0.5203656786398119
 10
0.4340009196540838
 20
0.5231624079517943
 10
0.4309662098459733
 20
0.5255765878238244
 10
0.4274642563260028
 20
0.5276156956477136
 10
0.4233001879499021
 20
0.5292900018398088
 10
0.4188546980700565
 20
0.5303209796318101
 10
0.4141311899820188
 20
0.5306848018958119
 10
0.4078348131421202
 20
0.5301247272636749
 10
0.4020502061581741
 20
0.5283680761598264
 10
0.3968207569981867
 20
0.5254145858797373
 10
0.3907610227981273
 20
0.5196972120877446
 10
0.3862493639582158
 20
0.5116673570077799
 10
0.384002256966097
 20
0.5018259924877491
 10
0.3837771667500345
 20
0.494224935543846
 10
0.3840947933579013
 20
0.4902802490317324
 10
0.384695378693852
 20
0.48676829091972
 10
0.3855481620540022
 20
0.4836255779437871
 10
0.3868584116701292
 20
0.4801635563677209
 10
0.3887308462860996
 20
0.476205230463699
 10
0.3910518326940391
 20
0.4718764398156923
 10
0.3921182945581982
 20
0.469993105167748
 10
0.3928006700700202
 20
0.4686105763837621
 10
0.3930785357101936
 20
0.4677867191677425
 10
0.3930014723339923
 20
0.46728978491167
 10
0.3927004319580813
 20
0.4667034161677331
 10
0.3922016384939546
 20
0.4660307435436648
 10
0.3920271977339258
 20
0.46564957657578
 10
0.3923128512061726
 20
0.465224956743799
 10
0.3925985046780642
 20
0.4648003365996809
 10
0.3931495263182043
 20
0.465020662887719
 10
0.3974875693260884
 20
0.4678810601678274
 10
0.4028094363180692
 20
0.4713901662877094
 10
0.404846571365999
 20
0.4727456914717374
 10
0.4046050596540792
 20
0.4730750258797585
 10
0.4042282719179582
 20
0.4735888271678315
 10
0.4040157475020188
 20
0.4738786330478293
 10
0.4036775142300045
 20
0.473855531319714
 10
0.4033209821581938
 20
0.4738443373837269
 10
0.4029951945661577
 20
0.4738419278077793
 10
0.4023836090459128
 20
0.4738877627916871
 10
0.4016555841901664
 20
0.4741213406557643
 10
0.4009624765019116
 20
0.4745771573676976
 10
0.4002720289260396
 20
0.4752519793597721
 10
0.3995225924461465
 20
0.4762613255678199
 10
0.3987268195978686
 20
0.477600516303812
 10
0.3974149257421082
 20
0.4799754518797946
 10
0.3953605966861868
 20
0.4847956291116971
 10
0.3941753489340254
 20
0.4897628310398439
 10
0.3938082041820063
 20
0.4949125620158297
 10
0.3943022443260382
 20
0.5007126173677774
 10
0.3957361872779152
 20
0.5057383504957116
 10
0.3981270526382037
 20
0.5099523195277876
 10
0.4018605198301266
 20
0.513782444007811
 10
0.4064113044059213
 20
0.5163571990476923
 10
0.4116512049421193
 20
0.5175651416798042
 10
0.4173649645261684
 20
0.5174603617837326
 10
0.4224766318138898
 20
0.5160358792957603
 10
0.4268625094142067
 20
0.5132352515436809
 10
0.4303524721500729
 20
0.5093291051436859
 10
0.4326275355898641
 20
0.5049816740557658
 10
0.4339589628301273
 20
0.4998285176317996
 10
0.4343238699181189
 20
0.4940447215358299
 10
0.4337851785181109
 20
0.488951583927765
 10
0.432433404821996
 20
0.4840083258157329
 10
0.4303264148461033
 20
0.4792115435916822
 10
0.4292088383340822
 20
0.4773658767037219
 10
0.4283859698461061
 20
0.4760739006156927
 10
0.4276382056859074
 20
0.4751260433677214
 10
0.4269418691098892
 20
0.4744874776477986
 10
0.4262438779979157
 20
0.4740693480397474
 10
0.4254887902621274
 20
0.4738690649438189
 10
0.4249216369741156
 20
0.4738420045598178
 10
0.4246285360618814
 20
0.473845370415762
 10
0.4242816319979124
 20
0.4738586188718373
 10
0.423959511030045
 20
0.473863973727676
 10
0.4236884469899476
 20
0.4735104122078049
 10
0.4232961619020533
 20
0.4729987359517481
 10
0.423095810166144
 20
0.4727374078717279
  0
LWPOLYLINE
  5
77C
330
1F
100
AcDbEntity
  8
SSB-BLUE
370
     0
100
AcDbPolyline
 90
        2
 70
     1
 43
0.0
 10
0.4387491306540792
 20
0.5523751030477025
 10
0.4387491306540792
 20
0.5523751030477025
  0
LWPOLYLINE
  5
77D
330
1F
100
AcDbEntity
  8
SSB-BLUE
370
     0
100
AcDbPolyline
 90
      100
 70
     1
 43
0.0
 10
0.4354306206539889
 20
0.5523751030477025
 10
0.4270600506539744
 20
0.5523751030477025
 10
0.4160148606540606
 20
0.5523751030477025
 10
0.4046724906539226
 20
0.5523751030477025
 10
0.3954103806539386
 20
0.5523751030477025
 10
0.3906059706541427
 20
0.5523751030477025
 10
0.3901077456539621
 20
0.5523841195358
 10
0.3897532843261722
 20
0.5524239528877191
 10
0.3894128629981708
 20
0.5524951425518241
 10
0.3890911616701231
 20
0.5525972202157794
 10
0.388792860653977
 20
0.5527297178797462
 10
0.3885226393259771
 20
0.5528921675437087
 10
0.3882835596538765
 20
0.553079269887844
 10
0.3880677823261447
 20
0.5533150105356795
 10
0.3878711929980305
 20
0.5536087828718319
 10
0.3876909836701383
 20
0.5539563752077639
 10
0.3875243466541551
 20
0.554353575543674
 10
0.3873684733260614
 20
0.554796171879767
 10
0.387251071157964
 20
0.5551553765438336
 10
0.3871262321579802
 20
0.5551553765438336
 10
0.3868855631581596
 20
0.5551553765438336
 10
0.3865908401581972
 20
0.5551553765438336
 10
0.3863038391581543
 20
0.5551553765438336
 10
0.3860863361580886
 20
0.5551553765438336
 10
0.3860001071580541
 20
0.5551553765438336
 10
0.3860001071580541
 20
0.5539285728877328
 10
0.3860001071580541
 20
0.5508340985436862
 10
0.3860001071580541
 20
0.5467508568878179
 10
0.3860001071580541
 20
0.542557752543754
 10
0.3860001071580541
 20
0.5391336888877909
 10
0.3860001071580541
 20
0.5373575705437279
 10
0.3860500586700919
 20
0.5372740287997209
 10
0.3862405346700885
 20
0.5372740287997209
 10
0.3865159526698996
 20
0.5372740287997209
 10
0.3868145366701725
 20
0.5372740287997209
 10
0.3870745106701463
 20
0.5372740287997209
 10
0.3872340986701168
 20
0.5372740287997209
 10
0.3873301849980457
 20
0.5375152827997445
 10
0.3874794769980063
 20
0.5379634804717331
 10
0.3876371929979072
 20
0.5383635914557594
 10
0.3878089489979537
 20
0.5387128071277943
 10
0.3880003609979869
 20
0.539008319799704
 10
0.3882170449982034
 20
0.5392473214717449
 10
0.3884600199898997
 20
0.539436621543727
 10
0.3887224899900801
 20
0.5396041265436811
 10
0.3890142099898757
 20
0.5397306815437828
 10
0.3893304999901836
 20
0.539820966543843
 10
0.3896666799901318
 20
0.5398796615436723
 10
0.390018069989912
 20
0.539911446543794
 10
0.3903799899900626
 20
0.5399210015438341
 10
0.3936984999901529
 20
0.5399210015438341
 10
0.4020690699901693
 20
0.5399210015438341
 10
0.4131142599900813
 20
0.5399210015438341
 10
0.4244566299898623
 20
0.5399210015438341
 10
0.4337187399902014
 20
0.5399210015438341
 10
0.4385231499899991
 20
0.5399210015438341
 10
0.4390532941499466
 20
0.5399157365438248
 10
0.4394264264939221
 20
0.5398899478718189
 10
0.4397667991499397
 20
0.5398384188878298
 10
0.4400790914938924
 20
0.5397564702157896
 10
0.4403679841498623
 20
0.5396394215437477
 10
0.4406381564940994
 20
0.5394825928717184
 10
0.4408829351580153
 20
0.5392965675518271
 10
0.4410933694862092
 20
0.5390634745357997
 10
0.4412801695021358
 20
0.5387698922078013
 10
0.4414470798298531
 20
0.5384242448797325
 10
0.4415978441580588
 20
0.5380349565517176
 10
0.441736206486187
 20
0.5376104515356595
 10
0.4418401414859013
 20
0.5372740287997209
 10
0.4419687634859564
 20
0.5372740287997209
 10
0.4422167254859808
 20
0.5372740287997209
 10
0.4425203794861972
 20
0.5372740287997209
 10
0.4428160774861354
 20
0.5372740287997209
 10
0.4430401714860182
 20
0.5372740287997209
 10
0.4431290134860877
 20
0.5372740287997209
 10
0.4431290134860877
 20
0.5385008324558243
 10
0.4431290134860877
 20
0.541595306799696
 10
0.4431290134860877
 20
0.5456785484557392
 10
0.4431290134860877
 20
0.5498716527998049
 10
0.4431290134860877
 20
0.5532957164557671
 10
0.4431290134860877
 20
0.5550718347998292
 10
0.4430775481501677
 20
0.5551553765438336
 10
0.4428813001502033
 20
0.5551553765438336
 10
0.4425975361499824
 20
0.5551553765438336
 10
0.4422899041499769
 20
0.5551553765438336
 10
0.4420220521499623
 20
0.5551553765438336
 10
0.4418576281500553
 20
0.5551553765438336
 10
0.441767913486066
 20
0.5549134205437909
 10
0.4416223945020033
 20
0.5544601332158159
 10
0.4414593258301665
 20
0.5540511888878142
 10
0.4412787071580642
 20
0.5536907998717196
 10
0.4410805384860517
 20
0.553383177543755
 10
0.4408648195019858
 20
0.5531325342156759
 10
0.4406359309981518
 20
0.552937405047727
 10
0.4403980993259787
 20
0.5527675407037896
 10
0.4401333576539149
 20
0.5526275110477048
 10
0.4398388976700823
 20
0.5525177847037642
 10
0.4395119119979399
 20
0.5524388290477109
 10
0.4391495923259772
 20
0.5523911127038348
 10
0.4387491306540792
 20
0.5523751030477025
  0
LWPOLYLINE
  5
77E
330
1F
100
AcDbEntity
  8
SSB-BLUE
370
     0
100
AcDbPolyline
 90
        2
 70
     1
 43
0.0
 10
0.4431290134860877
 20
0.604857525039682
 10
0.4431290134860877
 20
0.604857525039682
  0
LWPOLYLINE
  5
77F
330
1F
100
AcDbEntity
  8
SSB-BLUE
370
     0
100
AcDbPolyline
 90
      100
 70
     1
 43
0.0
 10
0.4314811879981271
 20
0.6112722693757942
 10
0.4112507545018911
 20
0.6224136673837722
 10
0.4043469379979552
 20
0.6265665093756621
 10
0.4180912206539614
 20
0.6265665093756621
 10
0.4351050679980215
 20
0.6265665093756621
 10
0.4391495923259772
 20
0.6265491153757017
 10
0.4399154524859857
 20
0.6263864925517977
 10
0.4405202033340104
 20
0.626061576375836
 10
0.4410282541499253
 20
0.6256095760477268
 10
0.4414593258301665
 20
0.6249346030477989
 10
0.4418015508300322
 20
0.6239545892077701
 10
0.4421470274938493
 20
0.6238243217197024
 10
0.4428160774861354
 20
0.6238243217197024
 10
0.4431290134860877
 20
0.6239049275437223
 10
0.4431290134860877
 20
0.6298973530478192
 10
0.4431290134860877
 20
0.6385729542157091
 10
0.4430775481501677
 20
0.6410772515436927
 10
0.4425203794861972
 20
0.6410772515436927
 10
0.441922933493963
 20
0.6410772515436927
 10
0.4416604195021066
 20
0.640471228047792
 10
0.4412787071580642
 20
0.6396019767037063
 10
0.440808147821862
 20
0.6390040043677896
 10
0.4402692676620817
 20
0.6386073497198171
 10
0.4395968614858888
 20
0.6383727940477586
 10
0.4387491306540792
 20
0.6382969780477375
 10
0.4244566299898623
 20
0.6382969780477375
 10
0.3996328129978632
 20
0.6382969780477375
 10
0.3901980063182062
 20
0.638300653719849
 10
0.3894128629981708
 20
0.6384108240397719
 10
0.3887224899900801
 20
0.6386821030477626
 10
0.3881730969900978
 20
0.639114262047678
 10
0.3877346539979882
 20
0.6397711365517545
 10
0.3873684733260614
 20
0.6407028443677554
 10
0.3870745106701463
 20
0.6410772515436927
 10
0.3864425134861733
 20
0.6410772515436927
 10
0.3860059789980301
 20
0.6410772515436927
 10
0.3860001071580541
 20
0.6355870655438176
 10
0.3860001071580541
 20
0.6238491759518379
 10
0.3860059789980301
 20
0.6183589899517843
 10
0.3864425134861733
 20
0.6183589899517843
 10
0.3870745106701463
 20
0.6183589899517843
 10
0.3874108345021341
 20
0.6188404081357515
 10
0.3880896906539348
 20
0.6198996603038181
 10
0.3891357801660913
 20
0.6204021387997863
 10
0.3900379780861396
 20
0.6204252280476786
 10
0.3906515151659651
 20
0.620247567135686
 10
0.3913923994140642
 20
0.6199437437197739
 10
0.3972406762379013
 20
0.6167815385437186
 10
0.41242816107005
 20
0.6085134483756978
 10
0.4211724705661464
 20
0.603753032871726
 10
0.4125969699179067
 20
0.5988969587917019
 10
0.3977026799101999
 20
0.590462724879763
 10
0.3918316785661986
 20
0.5871606544717638
 10
0.3906203005019169
 20
0.5866052957197701
 10
0.3897305485739828
 20
0.5863147007917489
 10
0.3887921074859264
 20
0.586333305039716
 10
0.3878490799981335
 20
0.586895672871723
 10
0.3873348871501214
 20
0.5879792757037201
 10
0.3870745106701463
 20
0.5884424858797797
 10
0.3864425134861733
 20
0.5884424858797797
 10
0.3860059789980301
 20
0.5884424858797797
 10
0.3860001071580541
 20
0.583094961879751
 10
0.3860001071580541
 20
0.571662080367676
 10
0.3860059789980301
 20
0.5663145563678241
 10
0.3864425134861733
 20
0.5663145563678241
 10
0.3870745106701463
 20
0.5663145563678241
 10
0.3873684733260614
 20
0.5666570883756732
 10
0.3877346539979882
 20
0.567518837367679
 10
0.3881730969900978
 20
0.5681359608877071
 10
0.3887224899900801
 20
0.5686071772958386
 10
0.3894128629981708
 20
0.568899483543679
 10
0.3901980063182062
 20
0.5689969189597397
 10
0.3996328129978632
 20
0.5689996149517489
 10
0.4244566299898623
 20
0.5689996149517489
 10
0.4387491306540792
 20
0.5689996149517489
 10
0.4395968614858888
 20
0.568935348879811
 10
0.4402692676620817
 20
0.5686927969596809
 10
0.440808147821862
 20
0.5682404153677796
 10
0.4412787071580642
 20
0.5676769287037633
 10
0.4416604195021066
 20
0.566870001543717
 10
0.441922933493963
 20
0.5663145563678241
 10
0.4425203794861972
 20
0.5663145563678241
 10
0.4430775481501677
 20
0.5663145563678241
 10
0.4431290134860877
 20
0.568968116367687
 10
0.4431290134860877
 20
0.5781608063677553
 10
0.4431290134860877
 20
0.5845103963678176
 10
0.4428160774861354
 20
0.5845958063678243
 10
0.4421470274938493
 20
0.5845958063678243
 10
0.4418019068219561
 20
0.584471944551722
 10
0.4414861384860913
 20
0.5835156888878244
 10
0.4410933694862092
 20
0.582825973887724
 10
0.4405721123341327
 20
0.5823600655357497
 10
0.4399261628219407
 20
0.5820515365358335
 10
0.4391499043258698
 20
0.5819064855517846
 10
0.4351050679980215
 20
0.5818917045516763
 10
0.4180912206539614
 20
0.5818917045516763
 10
0.4043469379979552
 20
0.5818917045516763
 10
0.4112507545018911
 20
0.5862849743677448
 10
0.4314811879981271
 20
0.5980714005518291
 10
0.4431290134860877
 20
0.604857525039682
  0
LWPOLYLINE
  5
780
330
1F
100
AcDbEntity
  8
SSB-BLUE
370
     0
100
AcDbPolyline
 90
        2
 70
     1
 43
0.0
 10
0.3223013765821836
 20
0.1158340873837922
 10
0.3223013765821836
 20
0.1158340873837922
  0
LWPOLYLINE
  5
781
330
1F
100
AcDbEntity
  8
SSB-BLUE
370
     0
100
AcDbPolyline
 90
      100
 70
     1
 43
0.0
 10
0.3223013765821836
 20
0.110270076567696
 10
0.3223013765821836
 20
0.0972011207198165
 10
0.3223013765821836
 20
0.0820618355197853
 10
0.3223013765821836
 20
0.070286835711709
 10
0.3222986774702097
 20
0.0667565054797894
 10
0.3222300084539071
 20
0.066061699887821
 10
0.3220734633901081
 20
0.0654350185597439
 10
0.3218353911662071
 20
0.0648785777917729
 10
0.3215221406699591
 20
0.0643944935678036
 10
0.3211211695020584
 20
0.063995260863714
 10
0.3205875736860086
 20
0.0636419458237212
 10
0.3199292174941384
 20
0.0633146815357995
 10
0.3191503341420887
 20
0.0630208742557299
 10
0.3182551559101476
 20
0.0627679317998089
 10
0.3179786228222134
 20
0.0625873617996931
 10
0.3179786228222134
 20
0.0621358809517689
 10
0.3179786228222134
 20
0.061541903463672
 10
0.3179786228222134
 20
0.061019174295839
 10
0.3179786228222134
 20
0.0607814380956828
 10
0.3204502478222011
 20
0.060780864951786
 10
0.3266877262381893
 20
0.060780864951786
 10
0.3340571138221566
 20
0.060780864951786
 10
0.339917289077869
 20
0.060780864951786
 10
0.3417442478219996
 20
0.060789850551819
 10
0.3417442478219996
 20
0.0610813867837479
 10
0.3417442478219996
 20
0.0616273805436789
 10
0.3417442478219996
 20
0.062214087807762
 10
0.3417442478219996
 20
0.062627763303774
 10
0.3412881197339193
 20
0.0628012836637852
 10
0.3403495026780927
 20
0.0630605175996744
 10
0.3395731337339143
 20
0.0633595577436639
 10
0.3389420831580718
 20
0.0636909972156969
 10
0.3384394202701451
 20
0.0640474291357141
 10
0.3381030624299477
 20
0.0644591380957094
 10
0.337863209933932
 20
0.0649536886718041
 10
0.3376873495740185
 20
0.0655202934636927
 10
0.3375775979580275
 20
0.0661568364878278
 10
0.3375360713819937
 20
0.0668612011356871
 10
0.337535751582184
 20
0.0735562706077522
 10
0.337535751582184
 20
0.091585837383783
 10
0.337535751582184
 20
0.1133219229758291
 10
0.337535751582184
 20
0.1309808381196849
 10
0.3375295540138925
 20
0.1369717828716919
 10
0.3371957642459922
 20
0.1369717828716919
 10
0.3365396950140536
 20
0.1369717828716919
 10
0.335821648542062
 20
0.1369717828716919
 10
0.3353019283021883
 20
0.1369717828716919
 10
0.3350991548220659
 20
0.1366261112078124
 10
0.3348246113579467
 20
0.1358162322158058
 10
0.3345126803101479
 20
0.1351341362558269
 10
0.3341654779739951
 20
0.134562893271724
 10
0.3337851203340971
 20
0.13408557320769
 10
0.3332553593100691
 20
0.133749102735834
 10
0.3326202464939172
 20
0.1335090954877174
 10
0.3319428080698827
 20
0.1333280415757834
 10
0.3312124622459933
 20
0.133211232207799
 10
0.3304186281660009
 20
0.1331639576558299
 10
0.3236797389180381
 20
0.1331631888877629
 10
0.3041675503259675
 20
0.1331631888877629
 10
0.2801502985741102
 20
0.1331631888877629
 10
0.2602285585019342
 20
0.1331631888877629
 10
0.2528219271659715
 20
0.1331635311517996
 10
0.2519730132299749
 20
0.1332073624716807
 10
0.2512343981580685
 20
0.1333209807038234
 10
0.2505986744459197
 20
0.1334990949517039
 10
0.2500584358381026
 20
0.1337364152557541
 10
0.2495987069580057
 20
0.1340648982156969
 10
0.2491842748620119
 20
0.1345381682076789
 10
0.2488090443178788
 20
0.1351045545997476
 10
0.2484608467019669
 20
0.1357809877596683
 10
0.2481275133899192
 20
0.1365843980557289
 10
0.2478987755819801
 20
0.1369717828716919
 10
0.2474257108860307
 20
0.1369717828716919
 10
0.2467547732941959
 20
0.1369717828716919
 10
0.2461303942141058
 20
0.1369717828716919
 10
0.2457970041180246
 20
0.1369717828716919
 10
0.2457867280860153
 20
0.1350628451917339
 10
0.2457867280860153
 20
0.1289397132158472
 10
0.2457867280860153
 20
0.1212396480636979
 10
0.2457867280860153
 20
0.1147222828717345
 10
0.2457873835979623
 20
0.1121397515437641
 10
0.2460592504141577
 20
0.1121397515437641
 10
0.2466570249421807
 20
0.1121397515437641
 10
0.2473362760861981
 20
0.1121397515437641
 10
0.2478525736860888
 20
0.1121397515437641
 10
0.2480646747179627
 20
0.1123888791758372
 10
0.2483623813740117
 20
0.113189563839672
 10
0.2487003226141322
 20
0.1138793952156769
 10
0.2490843181738658
 20
0.1144583739277696
 10
0.2495201881019433
 20
0.1149264996638122
 10
0.2499886214700666
 20
0.1152741718717474
 10
0.2505158244059746
 20
0.1155220215517163
 10
0.2511374538299904
 20
0.1156920727836619
 10
0.2518609166221655
 20
0.1157927907517369
 10
0.2526936202861272
 20
0.1158326403277723
 10
0.2576696845741964
 20
0.1158340873837922
 10
0.2743784458379324
 20
0.1158340873837922
 10
0.2958611390699222
 20
0.1158340873837922
 10
0.3144060278219438
 20
0.1158340873837922
 10
0.3223013765821836
 20
0.1158340873837922
  0
LWPOLYLINE
  5
782
330
1F
100
AcDbEntity
  8
SSB-BLUE
370
     0
100
AcDbPolyline
 90
        2
 70
     1
 43
0.0
 10
0.2745606541498908
 20
0.3419122123838276
 10
0.2745606541498908
 20
0.3419122123838276
  0
LWPOLYLINE
  5
783
330
1F
100
AcDbEntity
  8
SSB-BLUE
370
     0
100
AcDbPolyline
 90
      100
 70
     1
 43
0.0
 10
0.2895093460379598
 20
0.3419122123838276
 10
0.3168293695739184
 20
0.3419122123838276
 10
0.3303790628219421
 20
0.3419118248797393
 10
0.3316368979979707
 20
0.3417916767998079
 10
0.3327441597901846
 20
0.3414755190877301
 10
0.3337090874940642
 20
0.3409751203837281
 10
0.3343184621821393
 20
0.3400986187838084
 10
0.3348385493341741
 20
0.3388855724556832
 10
0.3352177513260184
 20
0.3376465873837571
 10
0.3360179508300209
 20
0.3376465873837571
 10
0.3371430721259934
 20
0.3376465873837571
 10
0.337535751582184
 20
0.3381363543757869
 10
0.337535751582184
 20
0.3479135841756999
 10
0.337535751582184
 20
0.360681151455843
 10
0.3374701676219622
 20
0.3645923881357422
 10
0.3365744028301947
 20
0.3645923881357422
 10
0.3354836851500291
 20
0.3645923881357422
 10
0.3350498416621601
 20
0.3640031140477395
 10
0.3345748800060502
 20
0.3625724249437159
 10
0.3340064041499779
 20
0.3615266224717146
 10
0.3332259196139073
 20
0.3608803185277605
 10
0.3321739766701484
 20
0.3604465043677925
 10
0.330992593662188
 20
0.3602086995278295
 10
0.3249858879181833
 20
0.36017441946374
 10
0.2915755466938936
 20
0.36017441946374
 10
0.2581652051581766
 20
0.36017441946374
 10
0.2521056971582052
 20
0.3602086995278295
 10
0.2509467915659052
 20
0.3604465043677925
 10
0.2500544269500757
 20
0.3608803185277605
 10
0.2493368709421446
 20
0.3615266224717146
 10
0.2487241435019154
 20
0.3625724249437159
 10
0.2481746837340708
 20
0.3640031140477395
 10
0.2477136687901673
 20
0.3645923881357422
 10
0.2466894582778991
 20
0.3645923881357422
 10
0.2458483131420337
 20
0.3645923881357422
 10
0.2457867280860153
 20
0.3600619874557553
 10
0.2457867280860153
 20
0.3452732648318078
 10
0.2457867280860153
 20
0.3339482613756779
 10
0.2461554637260921
 20
0.3333809623836839
 10
0.2472119802779371
 20
0.3333809623836839
 10
0.2479633870379168
 20
0.3333809623836839
 10
0.2485398778618588
 20
0.334808010135772
 10
0.2495156893741317
 20
0.3359098125518329
 10
0.2508201211261358
 20
0.3363279583838175
 10
0.2520321269340933
 20
0.3361680914557485
 10
0.2532584036218779
 20
0.3355573024718392
 10
0.2545192861018872
 20
0.3344525270077909
 10
0.2672933202060292
 20
0.3221804987198267
 10
0.2930499326462019
 20
0.2974552709198175
 10
0.3071431735739516
 20
0.2839263724717975
 10
0.2925826265339317
 20
0.2839263724717975
 10
0.2659719715020152
 20
0.2839263724717975
 10
0.2527637688059627
 20
0.2839267830636762
 10
0.251454569070086
 20
0.2840543121276866
 10
0.2504457239342024
 20
0.2843910590317824
 10
0.2496618211259562
 20
0.2849309491358109
 10
0.2490014512858867
 20
0.285829635495749
 10
0.2484286517340681
 20
0.2870167886317327
 10
0.2479633870379168
 20
0.2882681694638078
 10
0.2472119802779371
 20
0.2882681694638078
 10
0.2461554637260921
 20
0.2882681694638078
 10
0.2457867280860153
 20
0.2877790947997649
 10
0.2457867280860153
 20
0.2780156844157391
 10
0.2457867280860153
 20
0.2652661632157569
 10
0.2458483131420337
 20
0.2613604545518191
 10
0.2466894582778991
 20
0.2613604545518191
 10
0.2477136687901673
 20
0.2613604545518191
 10
0.2481746837340708
 20
0.2618935577197199
 10
0.2487241435019154
 20
0.2632155488317149
 10
0.2493368709421446
 20
0.2642025795516689
 10
0.2500544269500757
 20
0.2648645187518142
 10
0.2509467915659052
 20
0.2653390713756742
 10
0.2521056971582052
 20
0.2655753480397642
 10
0.2581652051581766
 20
0.2656070366318035
 10
0.2915755466938936
 20
0.2656070366318035
 10
0.3249858879181833
 20
0.2656070366318035
 10
0.330992593662188
 20
0.2655753480397642
 10
0.3321739766701484
 20
0.2653390713756742
 10
0.3332259196139073
 20
0.2648645187518142
 10
0.3340064041499779
 20
0.2642025795516689
 10
0.3345748800060502
 20
0.2632155488317149
 10
0.3350498416621601
 20
0.2618935577197199
 10
0.3354836851500291
 20
0.2613604545518191
 10
0.3365744028301947
 20
0.2613604545518191
 10
0.3374701676219622
 20
0.2613604545518191
 10
0.337535751582184
 20
0.2655453398798322
 10
0.337535751582184
 20
0.2792061856237522
 10
0.337535751582184
 20
0.28966747604772
 10
0.3371430721259934
 20
0.2901915093757719
 10
0.3360179508300209
 20
0.2901915093757719
 10
0.3352177513260184
 20
0.2901915093757719
 10
0.3347742751500053
 20
0.2888407225357579
 10
0.3338774795099315
 20
0.2877628785997599
 10
0.3324962071500632
 20
0.2873398977037231
 10
0.3313268299021193
 20
0.287629677687744
 10
0.3297852098221572
 20
0.2886838398876925
 10
0.3277157899501457
 20
0.290516229615779
 10
0.3147643111501033
 20
0.3030371247037795
 10
0.2887790204938589
 20
0.3281637058717219
 10
0.2745606541498908
 20
0.3419122123838276
  0
LWPOLYLINE
  5
784
330
1F
100
AcDbEntity
  8
SSB-BLUE
370
     0
100
AcDbPolyline
 90
        2
 70
     1
 43
0.0
 10
0.3043819429980825
 20
0.3985269586236759
 10
0.3043819429980825
 20
0.3985269586236759
  0
LWPOLYLINE
  5
785
330
1F
100
AcDbEntity
  8
SSB-BLUE
370
     0
100
AcDbPolyline
 90
      100
 70
     1
 43
0.0
 10
0.3043819429980825
 20
0.4061530417118098
 10
0.3043819429980825
 20
0.4183135524636619
 10
0.3044089207018921
 20
0.4217860116876926
 10
0.3046886586539141
 20
0.4231597779517698
 10
0.3053048461740886
 20
0.4241609463277918
 10
0.3061902207422023
 20
0.4249206067357827
 10
0.3075310697578608
 20
0.425560917159805
 10
0.3087046970701905
 20
0.4260160708718335
 10
0.3087046970701905
 20
0.4270477990236979
 10
0.3087046970701905
 20
0.428039903799796
 10
0.3043600786619685
 20
0.4281006888877279
 10
0.2925163711501444
 20
0.4281006888877279
 10
0.2873575291501051
 20
0.428070266079712
 10
0.2873575291501051
 20
0.427145215719782
 10
0.2873575291501051
 20
0.4260616727917928
 10
0.2884714274941533
 20
0.4256048523757272
 10
0.2898803474221232
 20
0.424974500991727
 10
0.2907856141741387
 20
0.4242178616797841
 10
0.2913733185901055
 20
0.4232520921996868
 10
0.2916624586620138
 20
0.4219012123837001
 10
0.2916993258301588
 20
0.4170071622876899
 10
0.2916993258301588
 20
0.3942490261598364
 10
0.2916993258301588
 20
0.3778278271837419
 10
0.2923239195661811
 20
0.3777129937116843
 10
0.2934828189181928
 20
0.3777129937116843
 10
0.2939930056860067
 20
0.3783597060637893
 10
0.2946056173739002
 20
0.379830741135704
 10
0.2953449191581363
 20
0.3808633138717923
 10
0.2962878720781496
 20
0.3815518616796769
 10
0.2975087642700522
 20
0.3818911925676822
 10
0.2990970723421586
 20
0.3819595757918499
 10
0.307476344334157
 20
0.3819595757918499
 10
0.3165396388861534
 20
0.3819595757918499
 10
0.3184864514940653
 20
0.3819088817196823
 10
0.319758521358164
 20
0.3816019464158309
 10
0.3207265347420414
 20
0.3809594803836909
 10
0.3214821990541914
 20
0.3800036811758174
 10
0.3221459306941767
 20
0.378541642935784
 10
0.3225976349340112
 20
0.3777129937116843
 10
0.3234521814061022
 20
0.3777129937116843
 10
0.3240147673259628
 20
0.3777129937116843
 10
0.3333001387978971
 20
0.3973242129756889
 10
0.3382404797099223
 20
0.4169076776557672
 10
0.3387453147418622
 20
0.4351258883677325
 10
0.3357802470779116
 20
0.4502015633197374
 10
0.3296070874620476
 20
0.4627347474638413
 10
0.3185295062459712
 20
0.4741147396717649
 10
0.3040011079979088
 20
0.4806444238718397
 10
0.2868585247739368
 20
0.4818459183997579
 10
0.2718256075498555
 20
0.4781765556638123
 10
0.2595298220221771
 20
0.46968462764782
 10
0.2506203584460973
 20
0.457299508719772
 10
0.2455619186701732
 20
0.4420375460556763
 10
0.2442203314620208
 20
0.425913010719766
 10
0.2444846534939113
 20
0.419958284487815
 10
0.2451790959179583
 20
0.414242514375709
 10
0.2463740013180011
 20
0.4087440700477015
 10
0.2481873627901336
 20
0.4027182898718032
 10
0.250535154054079
 20
0.3961696959757619
 10
0.2516902769580902
 20
0.3930122672077774
 10
0.2523362068140642
 20
0.3906160214078174
 10
0.2523737890860218
 20
0.389145057471751
 10
0.2518682788859152
 20
0.3879557431118119
 10
0.2509069273260973
 20
0.3865382475517629
 10
0.2510645060460312
 20
0.3858571050637769
 10
0.2516097310378988
 20
0.3848400505837022
 10
0.2527884935580467
 20
0.3850347682237149
 10
0.2633669421661047
 20
0.3903032685518051
 10
0.2731470177178572
 20
0.3951741464077711
 10
0.2734409273339793
 20
0.3958383959677798
 10
0.2729122165019824
 20
0.3969063919357794
 10
0.2723386023181238
 20
0.3973661161357498
 10
0.2708693362859424
 20
0.3975199926636783
 10
0.2697957814140981
 20
0.3978087271357964
 10
0.2689971316139541
 20
0.3982567865917605
 10
0.2680743763260143
 20
0.3991062084637775
 10
0.2669196243901961
 20
0.4005131849436925
 10
0.2647124914620686
 20
0.4043860066237146
 10
0.2627351037900834
 20
0.4093964324076769
 10
0.2611492243260471
 20
0.4153847086238099
 10
0.2601308475898723
 20
0.4212972627517848
 10
0.2597461821662037
 20
0.426961128543721
 10
0.2608386579658592
 20
0.4371737830476992
 10
0.2643692958300399
 20
0.4462331538877269
 10
0.2706180667739986
 20
0.4540656864397042
 10
0.2793184666380082
 20
0.4594951706557593
 10
0.2897911378859668
 20
0.461679025263722
 10
0.3005071931580563
 20
0.4606585397198151
 10
0.3096042979021814
 20
0.4564793243676819
 10
0.3168281418541312
 20
0.4493778168637892
 10
0.3212516338621416
 20
0.4405249597597729
 10
0.3232151830861234
 20
0.429847000623818
 10
0.3232233721499966
 20
0.4221549420156992
 10
0.3226393774141734
 20
0.4163075868397268
 10
0.3214500228060952
 20
0.4105400322158151
 10
0.3198453259981431
 20
0.405190496127748
 10
0.3178749835979246
 20
0.4004200155038058
 10
0.3153262986541918
 20
0.3985269586236759
 10
0.3086000800380972
 20
0.3985269586236759
 10
0.3043819429980825
 20
0.3985269586236759
  0
LWPOLYLINE
  5
786
330
1F
100
AcDbEntity
  8
SSB-BLUE
370
     0
100
AcDbPolyline
 90
        2
 70
     1
 43
0.0
 10
0.3302994235738801
 20
0.519925884375664
 10
0.3302994235738801
 20
0.519925884375664
  0
LWPOLYLINE
  5
787
330
1F
100
AcDbEntity
  8
SSB-BLUE
370
     0
100
AcDbPolyline
 90
      100
 70
     1
 43
0.0
 10
0.3249858879181833
 20
0.519925884375664
 10
0.3115830895738618
 20
0.519925884375664
 10
0.293897739917913
 20
0.519925884375664
 10
0.2757365515741181
 20
0.519925884375664
 10
0.2609062359180676
 20
0.519925884375664
 10
0.2532135055738891
 20
0.519925884375664
 10
0.2523432901500673
 20
0.5199360852157957
 10
0.2517329326620992
 20
0.5199838115438471
 10
0.2511928338299398
 20
0.5200748278718362
 10
0.2507155056540267
 20
0.5202138138877839
 10
0.250293459821961
 20
0.5204054502157849
 10
0.2499192083341857
 20
0.5206544165436853
 10
0.2495779037341634
 20
0.5209748502157652
 10
0.2492598197340285
 20
0.521372455215758
 10
0.2489658377340334
 20
0.5218408452157739
 10
0.2486905757339919
 20
0.5223823602157145
 10
0.2484286517340681
 20
0.52299934021584
 10
0.2481746837340708
 20
0.5236941252157071
 10
0.2479759150859468
 20
0.5242676813676779
 10
0.2477574470700823
 20
0.5242676813676779
 10
0.2473362760861981
 20
0.5242676813676779
 10
0.2468205110699291
 20
0.5242676813676779
 10
0.246318259086193
 20
0.5242676813676779
 10
0.2459376290699122
 20
0.5242676813676779
 10
0.2457867280860153
 20
0.5242676813676779
 10
0.2457867280860153
 20
0.5222321543678082
 10
0.2457867280860153
 20
0.5170977653677485
 10
0.2457867280860153
 20
0.5103228023678313
 10
0.2457867280860153
 20
0.5033655533676749
 10
0.2457867280860153
 20
0.4976843063677823
 10
0.2457867280860153
 20
0.4947373493677692
 10
0.2458741436219878
 20
0.4945987358798174
 10
0.2462074766218976
 20
0.4945987358798174
 10
0.2466894582778991
 20
0.4945987358798174
 10
0.2472119802779371
 20
0.4945987358798174
 10
0.247666934622087
 20
0.4945987358798174
 10
0.2479462136218551
 20
0.4945987358798174
 10
0.2480914533660332
 20
0.4949913585517934
 10
0.2483175241980842
 20
0.4957181625517828
 10
0.2485664683740776
 20
0.4963647045517697
 10
0.2488408602058847
 20
0.4969281765518421
 10
0.2491432736939529
 20
0.4974057705517092
 10
0.2494762825258867
 20
0.4977946785518093
 10
0.2498322361499241
 20
0.4981067347116666
 10
0.2501957086621154
 20
0.4983887437118293
 10
0.2506051038299564
 20
0.4986110827118324
 10
0.2510679096540773
 20
0.4987774957118081
 10
0.2515916138218852
 20
0.4988917267117082
 10
0.2521837043340049
 20
0.4989575197116701
 10
0.2528516695021263
 20
0.4989786187118268
 10
0.2581652051581766
 20
0.4989786187118268
 10
0.2715680035021464
 20
0.4989786187118268
 10
0.2892533531580934
 20
0.4989786187118268
 10
0.3074145415018865
 20
0.4989786187118268
 10
0.3222448571579406
 20
0.4989786187118268
 10
0.3299375875021191
 20
0.4989786187118268
 10
0.3307672956540522
 20
0.4989638108796824
 10
0.3313561466699522
 20
0.4988979985358118
 10
0.3319093129979702
 20
0.4987795358797209
 10
0.3324314743261318
 20
0.4986084235356829
 10
0.332927310653897
 20
0.4983846608797693
 10
0.3334015016699983
 20
0.4981082485357274
 10
0.3337935296699133
 20
0.49778745887172
 10
0.3340986853259285
 20
0.4974146285438108
 10
0.3343790366699881
 20
0.4969734702157984
 10
0.3346336483259922
 20
0.4964574318877917
 10
0.3348615836699729
 20
0.4958599618717044
 10
0.3350619073261818
 20
0.4951745075437391
 10
0.3352044095820137
 20
0.4945987358798174
 10
0.3354370642378868
 20
0.4945987358798174
 10
0.3358855835819874
 20
0.4945987358798174
 10
0.3364348402380646
 20
0.4945987358798174
 10
0.3369697055820247
 20
0.4945987358798174
 10
0.3373750522379773
 20
0.4945987358798174
 10
0.337535751582184
 20
0.4945987358798174
 10
0.337535751582184
 20
0.4966342628796925
 10
0.337535751582184
 20
0.5017686518797522
 10
0.337535751582184
 20
0.5085436148796676
 10
0.337535751582184
 20
0.5155008638798249
 10
0.337535751582184
 20
0.5211821108797175
 10
0.337535751582184
 20
0.5241290678797279
 10
0.3374426598298683
 20
0.5242676813676779
 10
0.3370876818300825
 20
0.5242676813676779
 10
0.3365744028301947
 20
0.5242676813676779
 10
0.3360179508300209
 20
0.5242676813676779
 10
0.3355334538300863
 20
0.5242676813676779
 10
0.3352360398298533
 20
0.5242676813676779
 10
0.3350991548220659
 20
0.5238802528718268
 10
0.3348934491660209
 20
0.5231656508797649
 10
0.3346657478220472
 20
0.5225294388878119
 10
0.3344169861658948
 20
0.521969277207675
 10
0.3341481008218867
 20
0.5214828252157027
 10
0.3338600271661214
 20
0.521067743535733
 10
0.3335172159178583
 20
0.5207261643757688
 10
0.3330477049019223
 20
0.520462134375773
 10
0.3325577185740087
 20
0.5202566043757182
 10
0.332042577246094
 20
0.5201048943757894
 10
0.3314976009180128
 20
0.5200023243758274
 10
0.3309181099020861
 20
0.5199442143758422
 10
0.3302994235738801
 20
0.519925884375664
  0
LWPOLYLINE
  5
788
330
1F
100
AcDbEntity
  8
SSB-BLUE
370
     0
100
AcDbPolyline
 90
        2
 70
     1
 43
0.0
 10
0.253594345566146
 20
0.5371978571197396
 10
0.253594345566146
 20
0.5371978571197396
  0
LWPOLYLINE
  5
789
330
1F
100
AcDbEntity
  8
SSB-BLUE
370
     0
100
AcDbPolyline
 90
      100
 70
     1
 43
0.0
 10
0.2627370129179702
 20
0.542615434167761
 10
0.2744918709419473
 20
0.5495808903276736
 10
0.2747612049418997
 20
0.5505814459357552
 10
0.2740359821581038
 20
0.5519851030477989
 10
0.2736406407181153
 20
0.552156703983779
 10
0.2731992340379232
 20
0.5521115865997351
 10
0.2722398970620112
 20
0.5522099839118049
 10
0.2700518884859626
 20
0.5537291343756703
 10
0.2672087956621283
 20
0.5580296437837529
 10
0.2618244784379868
 20
0.571848919071762
 10
0.2597661345658917
 20
0.5876232883837896
 10
0.2600273649899822
 20
0.595802821719774
 10
0.2610130743900783
 20
0.6022079077837326
 10
0.2623905306780792
 20
0.6067323243036871
 10
0.2642246364061087
 20
0.6100339395036789
 10
0.2665723571579477
 20
0.6126264467197089
 10
0.2691554335501145
 20
0.6140551050157166
 10
0.2722934362619167
 20
0.614309083623815
 10
0.2760280385099687
 20
0.6122326478077591
 10
0.2783882907419422
 20
0.6071807672077095
 10
0.2792534296141014
 20
0.6020428288958
 10
0.2801729407258726
 20
0.5934562899997396
 10
0.2806989930061725
 20
0.5875722030638224
 10
0.2813774273338936
 20
0.579945665703737
 10
0.2820338291580011
 20
0.573444362583782
 10
0.283273726206108
 20
0.5653685776718121
 10
0.2847947620859692
 20
0.5589042134797753
 10
0.2867816695019414
 20
0.5532679899517179
 10
0.2894451526622124
 20
0.5482565039917189
 10
0.292889511294037
 20
0.54410093324781
 10
0.2972130840538583
 20
0.5407783017276762
 10
0.3021354821580111
 20
0.5384978063676851
 10
0.3074331956700398
 20
0.5374240471356995
 10
0.314813814630126
 20
0.5380191231756717
 10
0.3224617542540997
 20
0.541487583183713
 10
0.3289424978219113
 20
0.5475742944638409
 10
0.3337619137740617
 20
0.5562904659277699
 10
0.3369248721179883
 20
0.567226047831773
 10
0.3385161335818623
 20
0.5769497805516819
 10
0.339021103085944
 20
0.587280864951751
 10
0.3372239206861778
 20
0.6063490725517529
 10
0.331908725813868
 20
0.625143104535681
 10
0.3291579902940995
 20
0.631939723455715
 10
0.3284801344141499
 20
0.634065325791811
 10
0.3285037309739636
 20
0.6351307870718
 10
0.3291709183260814
 20
0.6365354082637609
 10
0.3299599398058959
 20
0.6378633554557247
 10
0.3292554116699566
 20
0.6391941303038342
 10
0.32867158291808
 20
0.6399085513356822
 10
0.3176929780859439
 20
0.6342503470957839
 10
0.3067143735659492
 20
0.628592143167845
 10
0.3068812945021211
 20
0.6276777045517115
 10
0.3074292607258702
 20
0.6262910146238108
 10
0.3077906724778607
 20
0.626147563887729
 10
0.3081340028941657
 20
0.626147563887729
 10
0.3094696149898759
 20
0.6260180717197965
 10
0.3120210704941044
 20
0.6247435972718361
 10
0.3146653937341064
 20
0.621720473583749
 10
0.3178465669501502
 20
0.615492644391801
 10
0.3205684664941071
 20
0.6069522515438335
 10
0.3225281238298887
 20
0.5976652979198179
 10
0.3233043127499187
 20
0.5887103634638109
 10
0.3229831649099033
 20
0.579850912551791
 10
0.3214479470699825
 20
0.5720867086236741
 10
0.3194398729501096
 20
0.5670756797438071
 10
0.3174541221178906
 20
0.5641242720636859
 10
0.3150422182859085
 20
0.561829275255791
 10
0.3124933336621609
 20
0.5603650757918013
 10
0.3097282826459029
 20
0.559988229711836
 10
0.3062838594301223
 20
0.561458599287799
 10
0.3038921794381544
 20
0.565288963695803
 10
0.3025775836618791
 20
0.5702480717197825
 10
0.3014664193740728
 20
0.5784579242797135
 10
0.3008952515820269
 20
0.584554063887838
 10
0.3002258150220687
 20
0.5921808586476809
 10
0.2996647713179321
 20
0.5986214858798001
 10
0.2987263645498679
 20
0.606784035495739
 10
0.2978333325661442
 20
0.6121441836397379
 10
0.2965701696779188
 20
0.6167045915437753
 10
0.2948604586620984
 20
0.6212916071196686
 10
0.2915560797661811
 20
0.6270169088317115
 10
0.2870277429660017
 20
0.631601546343819
 10
0.2818657416538936
 20
0.6345921805357149
 10
0.2761378687501192
 20
0.6360308649517492
 10
0.2678114093100543
 20
0.6356012078798346
 10
0.2590869470701183
 20
0.6316203228158459
 10
0.2514086504701041
 20
0.6228844847438291
 10
0.2457976209421684
 20
0.6077005638876596
 10
0.2442196275898727
 20
0.5890880925038369
 10
0.2446251071579812
 20
0.5801659355197045
 10
0.2457478400940296
 20
0.5718800519916832
 10
0.2478710955660084
 20
0.563141235879769
 10
0.2512323854459311
 20
0.5526385505437262
 10
0.2533678101661838
 20
0.5463696743197444
 10
0.2540207294459478
 20
0.5439819146078149
 10
0.2540556422459765
 20
0.5425943295517719
 10
0.2534699496060888
 20
0.540881983383839
 10
0.2526318377339987
 20
0.5393264799277793
 10
0.2531732482139812
 20
0.5381291296957329
 10
0.253594345566146
 20
0.5371978571197396
  0
LWPOLYLINE
  5
78A
330
1F
100
AcDbEntity
  8
SSB-BLUE
370
     0
100
AcDbPolyline
 90
       12
 70
     1
 43
0.0
 10
0.3351934665109191
 20
0.2613604546536177
 10
0.3352480201094323
 20
0.2613604546536177
 10
0.3353976025575314
 20
0.2613604546536177
 10
0.3356210963326642
 20
0.2613604546536177
 10
0.3358973839129629
 20
0.2613604546536177
 10
0.3362053477765787
 20
0.2613604546536177
 10
0.3365238704012974
 20
0.2613604546536177
 10
0.3368318342645562
 20
0.2613604546536177
 10
0.3371081218452137
 20
0.2613604546536177
 10
0.337331615620343
 20
0.2613604546536177
 10
0.3374811980684473
 20
0.2613604546536177
 10
0.3375357516669535
 20
0.2613604546536177
  0
LWPOLYLINE
  5
78B
330
1F
100
AcDbEntity
  8
SSB-BLUE
370
     0
100
AcDbPolyline
 90
      202
 70
     1
 43
0.0
 10
0.4040527881142247
 20
0.4435635795517792
 10
0.4040527881142247
 20
0.456093853047773
 10
0.4021360376699441
 20
0.456093853047773
 10
0.390681964493881
 20
0.456093853047773
 10
0.3898900426620919
 20
0.4561317610476925
 10
0.3892714929899288
 20
0.456263159535685
 10
0.3887267556539431
 20
0.4564741030477446
 10
0.3882835596538765
 20
0.456788011551808
 10
0.3879186949979356
 20
0.457283088471761
 10
0.3876061443181626
 20
0.457883151207744
 10
0.3873308576701682
 20
0.4585932154716926
 10
0.3871262321579802
 20
0.458816997471689
 10
0.3866662099981468
 20
0.458816997471689
 10
0.3861825394862031
 20
0.458816997471689
 10
0.3860001071580541
 20
0.4586498253756899
 10
0.3860001071580541
 20
0.4501698394718226
 10
0.3860001071580541
 20
0.4356304313677848
 10
0.3860001071580541
 20
0.424457368791801
 10
0.3860152001580541
 20
0.42096725504772
 10
0.3861204415020722
 20
0.417698753967807
 10
0.3863389098300764
 20
0.4148957010397672
 10
0.3866856541500336
 20
0.412580669463778
 10
0.387218345166076
 20
0.4105284944558161
 10
0.3879373591499124
 20
0.4086235856317098
 10
0.3888677771580422
 20
0.406860926967716
 10
0.3899942946541461
 20
0.4051632070477896
 10
0.3913714429979276
 20
0.4035814194637491
 10
0.39305674032585
 20
0.4022450760397609
 10
0.3950276125018561
 20
0.4011566846317916
 10
0.3971167426622042
 20
0.400351440711682
 10
0.3992252071498932
 20
0.3998107128878248
 10
0.4013895679981055
 20
0.3995200873836975
 10
0.4051533775019394
 20
0.399558821871782
 10
0.4115873391661023
 20
0.4014626727037643
 10
0.4162089561658764
 20
0.4057980318877244
 10
0.4189881304860333
 20
0.412574932719684
 10
0.4210754273341202
 20
0.4138084078717093
 10
0.4268326731661923
 20
0.409751849703679
 10
0.4328858853178481
 20
0.4054867535436868
 10
0.4354979296619171
 20
0.4036432918717133
 10
0.4375326669900215
 20
0.4021589908717669
 10
0.4390958649902146
 20
0.4009384078717489
 10
0.4401825073259183
 20
0.3999614772156779
 10
0.4408585089898978
 20
0.39916901187968
 10
0.4413544988220952
 20
0.3983184633757259
 10
0.4416813649980043
 20
0.3973557630397391
 10
0.4418340914938952
 20
0.3962608452157283
 10
0.4420818048301332
 20
0.3962608452157283
 10
0.4425975361499824
 20
0.3962608452157283
 10
0.4430401714860182
 20
0.3962608452157283
 10
0.4431290134860877
 20
0.3970805069676721
 10
0.4431290134860877
 20
0.403520329551748
 10
0.4431290134860877
 20
0.4119004143038421
 10
0.4431290134860877
 20
0.4167880272157181
 10
0.4429410528300224
 20
0.4168843803038405
 10
0.4424427254941392
 20
0.4168843803038405
 10
0.4419687634859564
 20
0.4168843803038405
 10
0.4417740901499414
 20
0.4165635737917999
 10
0.4414800859980393
 20
0.415644834879843
 10
0.4410477734938674
 20
0.4150492939598243
 10
0.4404671196538974
 20
0.414784475535722
 10
0.439911056406011
 20
0.414848610879762
 10
0.4391079499979629
 20
0.415222347879797
 10
0.437951547582216
 20
0.415909249887708
 10
0.4365954214860182
 20
0.4168053507037524
 10
0.4326374930699082
 20
0.4195582995517376
 10
0.4258514041498902
 20
0.4242783843756879
 10
0.4206365154059313
 20
0.4279056158797179
 10
0.4199727634861592
 20
0.4294098777037219
 10
0.4199727634861592
 20
0.4346043338797152
 10
0.4199727634861592
 20
0.4406565903758271
 10
0.4199727634861592
 20
0.4435635795517792
 10
0.4235718931499584
 20
0.4435635795517792
 10
0.4310651628301674
 20
0.4435635795517792
 10
0.437496394494108
 20
0.4435635795517792
 10
0.4390792484939361
 20
0.443554629207803
 10
0.4396927478220203
 20
0.4434666888877708
 10
0.4402274181659163
 20
0.4432909623757189
 10
0.4407033254940984
 20
0.4430349735517068
 10
0.4410933694862092
 20
0.4426345777117878
 10
0.4414070121661382
 20
0.442092809367761
 10
0.4416683414941787
 20
0.4414456967197369
 10
0.4418576281500553
 20
0.4409356500397159
 10
0.4422167254859808
 20
0.4409356500397159
 10
0.4427463794940039
 20
0.4409356500397159
 10
0.4431054768299259
 20
0.4409356500397159
 10
0.4431290134860877
 20
0.4427953101277842
 10
0.4431290134860877
 20
0.4493401693837731
 10
0.4431290134860877
 20
0.4562214841357042
 10
0.4431229634940799
 20
0.458816997471689
 10
0.4428160774861354
 20
0.458816997471689
 10
0.4422899041499769
 20
0.458816997471689
 10
0.4418855568301652
 20
0.458816997471689
 10
0.4416973478221014
 20
0.458378822799757
 10
0.4414158164941729
 20
0.4577006995356925
 10
0.4410805384860517
 20
0.4571311444718278
 10
0.4406915134859482
 20
0.4566651422078119
 10
0.4402701038221047
 20
0.4564065940476621
 10
0.4397669988299562
 20
0.4562168418878132
 10
0.4391721661498949
 20
0.4561109350476676
 10
0.4368663469979524
 20
0.456093853047773
 10
0.4217746851661773
 20
0.456093853047773
 10
0.4040527881142247
 20
0.456093853047773
 10
0.4040527881142247
 20
0.4435635795517792
 10
0.4059254776619312
 20
0.4435635795517792
 10
0.4076596207740231
 20
0.4435635795517792
 10
0.4090599953340562
 20
0.4435635795517792
 10
0.4099959972059431
 20
0.4435635795517792
 10
0.4103370213178828
 20
0.4435635795517792
 10
0.4103370213178828
 20
0.4419249471276814
 10
0.4103370213178828
 20
0.4401280377276829
 10
0.4103370213178828
 20
0.4379028490477151
 10
0.4103370213178828
 20
0.435416969079693
 10
0.4103370213178828
 20
0.4328379848796642
 10
0.4103370213178828
 20
0.4303334841277771
 10
0.4103370213178828
 20
0.4280710538797177
 10
0.4103370213178828
 20
0.4262182818158041
 10
0.4103370213178828
 20
0.4249427553036869
 10
0.4103370213178828
 20
0.4244120620236976
 10
0.4103369433179989
 20
0.4237419003757479
 10
0.4103362728301381
 20
0.4230242551357329
 10
0.4103343437338971
 20
0.4223403161918072
 10
0.4103304895981453
 20
0.4216922491357327
 10
0.4103240439899967
 20
0.4210822198717699
 10
0.4103143407901034
 20
0.420512393679724
 10
0.4103007135659223
 20
0.4199849361517041
 10
0.4102824955741938
 20
0.4195020131917948
 10
0.4102590213180815
 20
0.419065790703721
 10
0.4102296234300411
 20
0.4186784336556775
 10
0.410193636413954
 20
0.4183421082637047
 10
0.4101350094300074
 20
0.4180250326478295
 10
0.4100662149900405
 20
0.4177110402157301
 10
0.4099918672620611
 20
0.4174038964957072
 10
0.4099119668699967
 20
0.4171027681357371
 10
0.4098265135020612
 20
0.4168068227196811
 10
0.4097355071578939
 20
0.4165152272076745
 10
0.4096389478382126
 20
0.4162271482476801
 10
0.4095368355419513
 20
0.4159417534237493
 10
0.4094291705819551
 20
0.4156582096958177
 10
0.4093159523339463
 20
0.4153756837116998
 10
0.4091971814222078
 20
0.4150933430557826
 10
0.4089341672938929
 20
0.414642670911749
 10
0.4085645802060967
 20
0.4141469275597825
 10
0.4081513564861617
 20
0.4136984303677629
 10
0.4076944125181968
 20
0.4132977621518173
 10
0.4071936653098725
 20
0.4129455063517993
 10
0.4066490312459994
 20
0.4126422460957793
 10
0.4060604273338964
 20
0.4123885638877374
 10
0.4054277702701637
 20
0.4121850434796759
 10
0.4047509767499751
 20
0.4120322673757429
 10
0.4040299631581466
 20
0.4119308190158009
 10
0.4032646465019952
 20
0.4118812812157869
 10
0.4024643221978952
 20
0.4118842037196693
 10
0.4017024206939475
 20
0.41193953816778
 10
0.4009914765899012
 20
0.412046718591685
 10
0.400329740501876
 20
0.412205161551702
 10
0.3997154636699278
 20
0.4124142845436829
 10
0.3991468967101817
 20
0.4126735038158005
 10
0.3986222902380572
 20
0.412982237175684
 10
0.3981398954939532
 20
0.4133399008716925
 10
0.3976979630940001
 20
0.4137459120877116
 10
0.3972947436539673
 20
0.414199687695839
 10
0.3969284884139057
 20
0.4147006445678274
 10
0.3966727033261108
 20
0.4151289428797478
 10
0.3965272773182011
 20
0.4154182938636941
 10
0.3963913467181079
 20
0.4157049419917796
 10
0.3962650781340677
 20
0.415990220751767
 10
0.3961486384860766
 20
0.4162754623837559
 10
0.3960421937580882
 20
0.4165619997517709
 10
0.3959459111818901
 20
0.4168511654076923
 10
0.3958599570539274
 20
0.4171442922157249
 10
0.3957844976699292
 20
0.4174427130397041
 10
0.3957197002620454
 20
0.4177477601197328
 10
0.3956657308138638
 20
0.4180607663198313
 10
0.3956223440940647
 20
0.4183766906558227
 10
0.3955842963181322
 20
0.4187160970476685
 10
0.3955499504220654
 20
0.419103924903733
 10
0.3955193064058697
 20
0.4195390082798296
 10
0.3954923642698969
 20
0.4200201809198019
 10
0.3954691243259294
 20
0.4205462768798221
 10
0.3954495862621865
 20
0.4211161299037301
 10
0.3954337500779559
 20
0.42172857373573
 10
0.3954216157739498
 20
0.4223824424318119
 10
0.3954131836619492
 20
0.4230765700477824
 10
0.3954084534301732
 20
0.423809790327848
 10
0.3954073336620993
 20
0.4244290351358222
 10
0.3954073336620993
 20
0.425050763775742
 10
0.3954073336620993
 20
0.4263987045517795
 10
0.3954073336620993
 20
0.4283052700957475
 10
0.3954073336620993
 20
0.4306028730398177
 10
0.3954073336620993
 20
0.4331239257036739
 10
0.3954073336620993
 20
0.4357008407198411
 10
0.3954073336620993
 20
0.4381660310317397
 10
0.3954073336620993
 20
0.440351908959765
 10
0.3954073336620993
 20
0.4420908871357261
 10
0.3954073336620993
 20
0.443215377879664
 10
0.395411782781867
 20
0.4435635795517792
 10
0.3958253649901255
 20
0.4435635795517792
 10
0.3968194135260656
 20
0.4435635795517792
 10
0.3982633233178898
 20
0.4435635795517792
 10
0.4000264892941523
 20
0.4435635795517792
 10
0.4019783073180517
 20
0.4435635795517792
  0
TEXT
  5
78C
330
1F
100
AcDbEntity
  8
SSB-BLUE
370
     0
100
AcDbText
 10
1.999886513905082
 20
0.6388811660118162
 30
0.0
 40
0.06
  1
De-Embedding
 50
90.0
 71
     2
 72
     1
 11
1.969886513905082
 21
0.3593245493678872
 31
0.0
100
AcDbText
 73
     2
1001
ACAD
1000
ACAD_MTEXT_DEFINED_HEIGHT_BEGIN
1070
    46
1040
0.0613298429
1000
ACAD_MTEXT_DEFINED_HEIGHT_END
  0
TEXT
  5
78D
330
1F
100
AcDbEntity
  8
SSB-BLUE
370
     0
100
AcDbText
 10
2.089349638541049
 20
0.6228953737979099
 30
0.0
 40
0.05
  1
Plug and Play Kit
 50
90.0
 71
     2
 72
     1
 11
2.064349638541049
 21
0.3569165197733533
 31
0.0
100
AcDbText
 73
     2
1001
ACAD
1000
ACAD_MTEXT_DEFINED_HEIGHT_BEGIN
1070
    46
1040
0.0613298429
1000
ACAD_MTEXT_DEFINED_HEIGHT_END
  0
LWPOLYLINE
  5
78E
330
1F
100
AcDbEntity
  8
SSB-WHITE
370
     0
100
AcDbPolyline
 90
        4
 70
     1
 43
0.0
 10
0.4934999265625457
 20
0.693999964093659
 10
1.868499926562542
 20
0.693999964093659
 10
1.868499926562542
 20
0.3939999640936573
 10
0.4934999265625457
 20
0.3939999640936573
  0
CIRCLE
  5
78F
330
1F
100
AcDbEntity
  8
L01
370
     0
100
AcDbCircle
 10
1.57450002408893
 20
0.3544999962745923
 30
0.0
 40
0.01
  0
TEXT
  5
790
330
1F
100
AcDbEntity
  8
FAB
370
     0
100
AcDbText
 10
1.568424496054457
 20
0.035992034562922
 30
0.0
 40
0.05
  1
907-000-10144
 72
     1
 11
1.805344687050364
 21
0.060992034562922
 31
0.0
100
AcDbText
 73
     2
1001
ACAD
1000
ACAD_MTEXT_DEFINED_HEIGHT_BEGIN
1070
    46
1040
0.0613298429
1000
ACAD_MTEXT_DEFINED_HEIGHT_END
  0
LWPOLYLINE
  5
791
330
1F
100
AcDbEntity
  8
L02
370
     0
100
AcDbPolyline
 90
       12
 70
     1
 43
0.0
 10
0.7874999752377079
 20
0.3394999923452264
 10
0.7874999752377079
 20
0.0149999923452118
 10
-0.0000000005162768
 20
0.0149999923452118
 10
-0.0000000005162768
 20
0.6939999923452414
 10
2.361999999483719
 20
0.6939999923452414
 10
2.361999999483719
 20
0.0149999923452118
 10
1.574500023729735
 20
0.0149999923452118
 10
1.574500023729735
 20
0.3394999923452264
 42
2762.44244273151
 10
1.574478303828721
 20
0.3395000080703712
 10
1.574478303828719
 20
0.0149999923452118
 10
0.7875216951387234
 20
0.0149999923452118
 10
0.7875216951387217
 20
0.3395000080703712
 42
2762.44244273151
  0
LWPOLYLINE
  5
792
330
1F
100
AcDbEntity
  8
L03
370
     0
100
AcDbPolyline
 90
       12
 70
     1
 43
0.0
 10
0.7875000294397517
 20
0.3394999923451065
 10
0.7875000294397517
 20
0.0149999923450919
 10
0.0300000051944345
 20
0.0149999923449782
 10
0.0300000051944345
 20
0.6939999923450078
 10
2.332000005194498
 20
0.6939999923450078
 10
2.332000005194498
 20
0.0149999923449782
 10
1.574500077931778
 20
0.0149999923450919
 10
1.574500077931778
 20
0.3394999923451065
 42
2762.44244273151
 10
1.574478358030765
 20
0.3395000080702513
 10
1.574478358030763
 20
0.0149999923450919
 10
0.7875217493407672
 20
0.0149999923450919
 10
0.7875217493407654
 20
0.3395000080702513
 42
2762.44244273151
  0
ENDSEC
  0
SECTION
  2
OBJECTS
  0
DICTIONARY
  5
C
330
0
100
AcDbDictionary
281
     1
  3
ACAD_CIP_PREVIOUS_PRODUCT_INFO
350
216
  3
ACAD_COLOR
350
6B
  3
ACAD_DETAILVIEWSTYLE
350
21B
  3
ACAD_GROUP
350
D
  3
ACAD_LAYOUT
350
1A
  3
ACAD_MATERIAL
350
6A
  3
ACAD_MLEADERSTYLE
350
12D
  3
ACAD_MLINESTYLE
350
17
  3
ACAD_PLOTSETTINGS
350
19
  3
ACAD_PLOTSTYLENAME
350
E
  3
ACAD_SCALELIST
350
10C
  3
ACAD_SECTIONVIEWSTYLE
350
219
  3
ACAD_TABLESTYLE
350
7E
  3
ACAD_VISUALSTYLE
350
EF
  3
ACDB_RECOMPOSE_DATA
350
794
  3
AcDbVariableDictionary
350
5E
  3
DWGPROPS
350
795
  0
DICTIONARY
  5
1FF
330
2
100
AcDbDictionary
280
     1
281
     1
  3
ACAD_LAYERSTATES
360
200
  0
DICTIONARY
  5
13C
330
10
100
AcDbDictionary
280
     1
281
     1
  0
DICTIONARY
  5
232
330
231
100
AcDbDictionary
280
     1
281
     1
  0
DICTIONARY
  5
234
330
233
100
AcDbDictionary
280
     1
281
     1
  0
DICTIONARY
  5
236
330
235
100
AcDbDictionary
280
     1
281
     1
  0
DICTIONARY
  5
238
330
237
100
AcDbDictionary
280
     1
281
     1
  0
DICTIONARY
  5
23A
330
239
100
AcDbDictionary
280
     1
281
     1
  0
DICTIONARY
  5
23D
330
23C
100
AcDbDictionary
280
     1
281
     1
  0
DICTIONARY
  5
1CE
330
1F
100
AcDbDictionary
280
     1
281
     1
  0
XRECORD
  5
216
102
{ACAD_REACTORS
330
C
102
}
330
C
100
AcDbXrecord
280
     1
300
ACDLT
300
2013
300
ACDLT_F_S
  0
DICTIONARY
  5
6B
102
{ACAD_REACTORS
330
C
102
}
330
C
100
AcDbDictionary
281
     1
  0
DICTIONARY
  5
21B
102
{ACAD_REACTORS
330
C
102
}
330
C
100
AcDbDictionary
281
     1
  3
Metric50
350
21C
  0
DICTIONARY
  5
D
102
{ACAD_REACTORS
330
C
102
}
330
C
100
AcDbDictionary
281
     1
  0
DICTIONARY
  5
1A
102
{ACAD_REACTORS
330
C
102
}
330
C
100
AcDbDictionary
281
     1
  3
Layout1
350
D3
  3
Layout2
350
D7
  3
Model
350
22
  0
DICTIONARY
  5
6A
102
{ACAD_REACTORS
330
C
102
}
330
C
100
AcDbDictionary
281
     1
  3
ByBlock
350
ED
  3
ByLayer
350
EC
  3
Global
350
EE
  0
DICTIONARY
  5
12D
102
{ACAD_REACTORS
330
C
102
}
330
C
100
AcDbDictionary
281
     1
  3
Annotative
350
13B
  3
Standard
350
12E
  0
DICTIONARY
  5
17
102
{ACAD_REACTORS
330
C
102
}
330
C
100
AcDbDictionary
281
     1
  3
Standard
350
18
  0
DICTIONARY
  5
19
102
{ACAD_REACTORS
330
C
102
}
330
C
100
AcDbDictionary
281
     1
  0
ACDBDICTIONARYWDFLT
  5
E
102
{ACAD_REACTORS
330
C
102
}
330
C
100
AcDbDictionary
281
     1
  3
Normal
350
F
100
AcDbDictionaryWithDefault
340
F
  0
DICTIONARY
  5
10C
102
{ACAD_REACTORS
330
C
102
}
330
C
100
AcDbDictionary
281
     1
  3
A0
350
10D
  3
A1
350
1BE
  3
A2
350
1BF
  3
A3
350
1C0
  3
A4
350
1C1
  3
A5
350
1C2
  3
A6
350
1C3
  3
A7
350
1C4
  3
A8
350
1C5
  3
A9
350
1C6
  3
B0
350
1C7
  3
B1
350
1C8
  3
B2
350
1C9
  3
B3
350
1CA
  3
B4
350
1CB
  3
B5
350
1CC
  3
B6
350
1CD
  0
DICTIONARY
  5
219
102
{ACAD_REACTORS
330
C
102
}
330
C
100
AcDbDictionary
281
     1
  3
Metric50
350
21A
  0
DICTIONARY
  5
7E
102
{ACAD_REACTORS
330
C
102
}
330
C
100
AcDbDictionary
281
     1
  3
Standard
350
7F
  0
DICTIONARY
  5
EF
102
{ACAD_REACTORS
330
C
102
}
330
C
100
AcDbDictionary
281
     1
  3
2dWireframe
350
F5
  3
Basic
350
F4
  3
Brighten
350
FB
  3
ColorChange
350
FF
  3
Conceptual
350
F8
  3
Dim
350
FA
  3
EdgeColorOff
350
1E6
  3
Facepattern
350
FE
  3
Flat
350
F0
  3
FlatWithEdges
350
F1
  3
Gouraud
350
F2
  3
GouraudWithEdges
350
F3
  3
Hidden
350
F7
  3
JitterOff
350
1E4
  3
Linepattern
350
FD
  3
OverhangOff
350
1E5
  3
Realistic
350
F9
  3
Shaded
350
1F3
  3
Shaded with edges
350
1F2
  3
Shades of Gray
350
1EF
  3
Sketchy
350
1F0
  3
Thicken
350
FC
  3
Wireframe
350
F6
  3
X-Ray
350
1F1
  0
XRECORD
  5
794
102
{ACAD_REACTORS
330
C
102
}
330
C
100
AcDbXrecord
280
     1
 90
        1
330
7F
  0
DICTIONARY
  5
5E
102
{ACAD_REACTORS
330
C
102
}
330
C
100
AcDbDictionary
281
     1
  3
CANNOSCALE
350
146
  3
CMLEADERSTYLE
350
145
  3
CTABLESTYLE
350
84
  3
CVIEWDETAILSTYLE
350
227
  3
CVIEWSECTIONSTYLE
350
228
  3
DIMASSOC
350
5F
  3
HIDETEXT
350
63
  3
INDEXCTL
350
2E0
  3
LAYEREVAL
350
1AE
  3
LAYERNOTIFY
350
1AF
  3
LIGHTINGUNITS
350
2DE
  3
MSLTSCALE
350
2DD
  3
PSOLHEIGHT
350
407
  3
PSOLWIDTH
350
406
  3
SORTENTS
350
2DF
  3
XCLIPFRAME
350
408
  0
XRECORD
  5
795
102
{ACAD_REACTORS
330
C
102
}
330
C
100
AcDbXrecord
280
     1
  1
DWGPROPS COOKIE
  2

  3

  4

  6

  7

  8
Peter-EMMETT
  9

300
=
301
=
302
=
303
=
304
=
305
=
306
=
307
=
308
=
309
=
 40
0.0029302430555556
 41
2458166.469966319
 42
2458166.481114491
  1

 90
        0
  0
DICTIONARY
  5
200
102
{ACAD_REACTORS
330
1FF
102
}
330
1FF
100
AcDbDictionary
281
     1
  0
ACDBDETAILVIEWSTYLE
  5
21C
102
{ACAD_REACTORS
330
21B
102
}
330
21B
100
AcDbModelDocViewStyle
 70
     0
  3
Metric50
290
     0
100
AcDbDetailViewStyle
 70
     0
 71
     0
 90
        3
 71
     1
340
11
 40
5.0
340
0
 40
5.0
300

 40
0.0
280
     1
 71
     2
340
16
 90
       25
 71
     3
340
11
 40
5.0
 90
        0
 40
15.0
 90
        1
300
%<\AcVar ViewDetailId>% (%<\AcVar ViewScale \f "%sn">%)
 71
     4
340
16
 90
       25
340
16
 90
       25
280
     0
  0
LAYOUT
  5
D3
102
{ACAD_XDICTIONARY
360
799
102
}
102
{ACAD_REACTORS
330
1A
102
}
330
1A
100
AcDbPlotSettings
  1

  2
C:\Documents and Settings\basas\Application Data\Autodesk\AutoCAD 2005\R16.1\enu\plotters\Default Windows System Printer.pc3
  4

  6

 40
0.0
 41
0.0
 42
0.0
 43
0.0
 44
0.0
 45
0.0
 46
0.0
 47
0.0
 48
0.0
 49
0.0
140
0.0
141
0.0
142
1.0
143
1.0
 70
   688
 72
     0
 73
     0
 74
     5
  7

 75
    16
147
1.0
148
0.0
149
0.0
100
AcDbLayout
  1
Layout1
 70
     1
 71
     1
 10
0.0
 20
0.0
 11
12.0
 21
9.0
 12
0.0
 22
0.0
 32
0.0
 14
0.0
 24
0.0
 34
0.0
 15
0.0
 25
0.0
 35
0.0
146
0.0
 13
0.0
 23
0.0
 33
0.0
 16
1.0
 26
0.0
 36
0.0
 17
0.0
 27
1.0
 37
0.0
 76
     0
330
D2
  0
LAYOUT
  5
D7
102
{ACAD_XDICTIONARY
360
79B
102
}
102
{ACAD_REACTORS
330
1A
102
}
330
1A
100
AcDbPlotSettings
  1

  2
C:\Documents and Settings\basas\Application Data\Autodesk\AutoCAD 2005\R16.1\enu\plotters\Default Windows System Printer.pc3
  4

  6

 40
0.0
 41
0.0
 42
0.0
 43
0.0
 44
0.0
 45
0.0
 46
0.0
 47
0.0
 48
0.0
 49
0.0
140
0.0
141
0.0
142
1.0
143
1.0
 70
   688
 72
     0
 73
     0
 74
     5
  7

 75
    16
147
1.0
148
0.0
149
0.0
100
AcDbLayout
  1
Layout2
 70
     1
 71
     2
 10
0.0
 20
0.0
 11
12.0
 21
9.0
 12
0.0
 22
0.0
 32
0.0
 14
0.0
 24
0.0
 34
0.0
 15
0.0
 25
0.0
 35
0.0
146
0.0
 13
0.0
 23
0.0
 33
0.0
 16
1.0
 26
0.0
 36
0.0
 17
0.0
 27
1.0
 37
0.0
 76
     0
330
D6
  0
LAYOUT
  5
22
102
{ACAD_XDICTIONARY
360
796
102
}
102
{ACAD_REACTORS
330
1A
102
}
330
1A
100
AcDbPlotSettings
  1

  2
none_device
  4
ISO_A4_(210.00_x_297.00_MM)
  6

 40
7.5
 41
20.0
 42
7.5
 43
20.0
 44
210.0
 45
297.0
 46
11.54999923706054
 47
-13.65000009536743
 48
0.0
 49
0.0
140
0.0
141
0.0
142
1.0
143
8.704084754739808
 70
 11952
 72
     1
 73
     0
 74
     0
  7

 75
     0
147
0.1148885871608098
148
0.0
149
0.0
100
AcDbLayout
  1
Model
 70
     1
 71
     0
 10
0.0
 20
0.0
 11
12.0
 21
9.0
 12
0.0
 22
0.0
 32
0.0
 14
0.0
 24
0.0
 34
0.0
 15
0.0
 25
0.0
 35
0.0
146
0.0
 13
0.0
 23
0.0
 33
0.0
 16
1.0
 26
0.0
 36
0.0
 17
0.0
 27
1.0
 37
0.0
 76
     0
330
1F
331
EA
1001
ACAD_PSEXT
1000
None
1000
None
1000
Not applicable
1000
The layout will not be plotted unless a new plotter configuration name is selected.
1070
     0
  0
MATERIAL
  5
ED
102
{ACAD_XDICTIONARY
360
1F9
102
}
102
{ACAD_REACTORS
330
6A
102
}
330
6A
100
AcDbMaterial
  1
ByBlock
  0
MATERIAL
  5
EC
102
{ACAD_XDICTIONARY
360
1F7
102
}
102
{ACAD_REACTORS
330
6A
102
}
330
6A
100
AcDbMaterial
  1
ByLayer
  0
MATERIAL
  5
EE
102
{ACAD_XDICTIONARY
360
173
102
}
102
{ACAD_REACTORS
330
6A
102
}
330
6A
100
AcDbMaterial
  1
Global
 43
0.0007999999797903
 43
0.0
 43
0.0
 43
0.0
 43
0.0
 43
0.0007999999797903
 43
0.0
 43
0.0
 43
0.0
 43
0.0
 43
1.0
 43
0.0
 43
0.0
 43
0.0
 43
0.0
 43
1.0
 49
0.0007999999797903
 49
0.0
 49
0.0
 49
0.0
 49
0.0
 49
0.0007999999797903
 49
0.0
 49
0.0
 49
0.0
 49
0.0
 49
1.0
 49
0.0
 49
0.0
 49
0.0
 49
0.0
 49
1.0
142
0.0007999999797903
142
0.0
142
0.0
142
0.0
142
0.0
142
0.0007999999797903
142
0.0
142
0.0
142
0.0
142
0.0
142
1.0
142
0.0
142
0.0
142
0.0
142
0.0
142
1.0
144
0.0007999999797903
144
0.0
144
0.0
144
0.0
144
0.0
144
0.0007999999797903
144
0.0
144
0.0
144
0.0
144
0.0
144
1.0
144
0.0
144
0.0
144
0.0
144
0.0
144
1.0
1001
ACAD
1070
    -1
1070
     3
1070
     0
1000

1071
        0
1070
     0
  0
MLEADERSTYLE
  5
13B
102
{ACAD_REACTORS
330
12D
102
}
330
12D
100
AcDbMLeaderStyle
170
     2
171
     1
172
     0
 90
        2
 40
0.0
 41
0.0
173
     1
 91
-1056964608
340
14
 92
       -2
290
     1
 42
2.0
291
     1
 43
8.0
  3
Standard
 44
4.0
300

342
11
174
     1
178
     1
175
     1
176
     0
 93
-1056964608
 45
4.0
292
     0
297
     0
 46
4.0
 94
-1056964608
 47
1.0
 49
1.0
140
1.0
293
     1
141
0.0
294
     1
177
     0
142
1.0
295
     0
296
     1
143
3.75
1001
ACAD_MLEADERVER
1070
     2
  0
MLEADERSTYLE
  5
12E
102
{ACAD_REACTORS
330
12D
102
}
330
12D
100
AcDbMLeaderStyle
170
     2
171
     1
172
     0
 90
        2
 40
0.0
 41
0.0
173
     1
 91
-1056964608
340
14
 92
       -2
290
     1
 42
2.0
291
     1
 43
8.0
  3
Standard
 44
4.0
300

342
11
174
     1
178
     1
175
     1
176
     0
 93
-1056964608
 45
4.0
292
     0
297
     0
 46
4.0
 94
-1056964608
 47
1.0
 49
1.0
140
1.0
293
     1
141
0.0
294
     1
177
     0
142
1.0
295
     0
296
     0
143
3.75
1001
ACAD_MLEADERVER
1070
     2
  0
MLINESTYLE
  5
18
102
{ACAD_REACTORS
330
17
102
}
330
17
100
AcDbMlineStyle
  2
STANDARD
 70
     0
  3

 62
   256
 51
90.0
 52
90.0
 71
     2
 49
0.5
 62
   256
  6
BYLAYER
 49
-0.5
 62
   256
  6
BYLAYER
  0
ACDBPLACEHOLDER
  5
F
102
{ACAD_REACTORS
330
E
102
}
330
E
  0
SCALE
  5
10D
102
{ACAD_REACTORS
330
10C
102
}
330
10C
100
AcDbScale
 70
     0
300
1:1
140
1.0
141
1.0
290
     1
  0
SCALE
  5
1BE
102
{ACAD_REACTORS
330
10C
102
}
330
10C
100
AcDbScale
 70
     0
300
1:2
140
1.0
141
2.0
290
     0
  0
SCALE
  5
1BF
102
{ACAD_REACTORS
330
10C
102
}
330
10C
100
AcDbScale
 70
     0
300
1:4
140
1.0
141
4.0
290
     0
  0
SCALE
  5
1C0
102
{ACAD_REACTORS
330
10C
102
}
330
10C
100
AcDbScale
 70
     0
300
1:5
140
1.0
141
5.0
290
     0
  0
SCALE
  5
1C1
102
{ACAD_REACTORS
330
10C
102
}
330
10C
100
AcDbScale
 70
     0
300
1:8
140
1.0
141
8.0
290
     0
  0
SCALE
  5
1C2
102
{ACAD_REACTORS
330
10C
102
}
330
10C
100
AcDbScale
 70
     0
300
1:10
140
1.0
141
10.0
290
     0
  0
SCALE
  5
1C3
102
{ACAD_REACTORS
330
10C
102
}
330
10C
100
AcDbScale
 70
     0
300
1:16
140
1.0
141
16.0
290
     0
  0
SCALE
  5
1C4
102
{ACAD_REACTORS
330
10C
102
}
330
10C
100
AcDbScale
 70
     0
300
1:20
140
1.0
141
20.0
290
     0
  0
SCALE
  5
1C5
102
{ACAD_REACTORS
330
10C
102
}
330
10C
100
AcDbScale
 70
     0
300
1:30
140
1.0
141
30.0
290
     0
  0
SCALE
  5
1C6
102
{ACAD_REACTORS
330
10C
102
}
330
10C
100
AcDbScale
 70
     0
300
1:40
140
1.0
141
40.0
290
     0
  0
SCALE
  5
1C7
102
{ACAD_REACTORS
330
10C
102
}
330
10C
100
AcDbScale
 70
     0
300
1:50
140
1.0
141
50.0
290
     0
  0
SCALE
  5
1C8
102
{ACAD_REACTORS
330
10C
102
}
330
10C
100
AcDbScale
 70
     0
300
1:100
140
1.0
141
100.0
290
     0
  0
SCALE
  5
1C9
102
{ACAD_REACTORS
330
10C
102
}
330
10C
100
AcDbScale
 70
     0
300
2:1
140
2.0
141
1.0
290
     0
  0
SCALE
  5
1CA
102
{ACAD_REACTORS
330
10C
102
}
330
10C
100
AcDbScale
 70
     0
300
4:1
140
4.0
141
1.0
290
     0
  0
SCALE
  5
1CB
102
{ACAD_REACTORS
330
10C
102
}
330
10C
100
AcDbScale
 70
     0
300
8:1
140
8.0
141
1.0
290
     0
  0
SCALE
  5
1CC
102
{ACAD_REACTORS
330
10C
102
}
330
10C
100
AcDbScale
 70
     0
300
10:1
140
10.0
141
1.0
290
     0
  0
SCALE
  5
1CD
102
{ACAD_REACTORS
330
10C
102
}
330
10C
100
AcDbScale
 70
     0
300
100:1
140
100.0
141
1.0
290
     0
  0
ACDBSECTIONVIEWSTYLE
  5
21A
102
{ACAD_REACTORS
330
219
102
}
330
219
100
AcDbModelDocViewStyle
 70
     0
  3
Metric50
290
     0
100
AcDbSectionViewStyle
 70
     0
 71
     0
 90
      102
 71
     1
340
11
 40
5.0
340
0
340
0
 40
5.0
300
I, O, Q, S, X, Z
 40
10.0
 90
        0
 40
2.5
 90
        0
 71
     2
340
16
 90
       25
340
16
 90
       50
 40
5.0
 40
2.5
 40
5.0
 71
     3
340
11
 40
5.0
 90
        0
 40
15.0
 90
        1
300
%<\AcVar ViewSectionStartId>%-%<\AcVar ViewSectionEndId>% (%<\AcVar ViewScale \f "%sn">%)
 71
     4
300
ANSI31
 40
1.0
 90
        0
290
     0
290
     0
 90
        6
 40
0.0
 40
1.570796326794896
 40
0.2617993877991494
 40
1.308996938995747
 40
-0.2617993877991494
 40
1.832595714594045
  0
TABLESTYLE
  5
7F
102
{ACAD_XDICTIONARY
360
162
102
}
102
{ACAD_REACTORS
330
7E
102
}
330
7E
100
AcDbTableStyle
  3
Standard
 70
     0
 71
     0
 40
1.5
 41
1.5
280
     0
281
     0
  7
Standard
140
4.5
170
     2
 62
     0
 63
     7
283
     0
274
    -2
284
     1
 64
     0
275
    -2
285
     1
 65
     0
276
    -2
286
     1
 66
     0
277
    -2
287
     1
 67
     0
278
    -2
288
     1
 68
     0
279
    -2
289
     1
 69
     0
  7
Standard
140
6.0
170
     5
 62
     0
 63
     7
283
     0
274
    -2
284
     1
 64
     0
275
    -2
285
     1
 65
     0
276
    -2
286
     1
 66
     0
277
    -2
287
     1
 67
     0
278
    -2
288
     1
 68
     0
279
    -2
289
     1
 69
     0
  7
Standard
140
4.5
170
     5
 62
     0
 63
     7
283
     0
274
    -2
284
     1
 64
     0
275
    -2
285
     1
 65
     0
276
    -2
286
     1
 66
     0
277
    -2
287
     1
 67
     0
278
    -2
288
     1
 68
     0
279
    -2
289
     1
 69
     0
  0
VISUALSTYLE
  5
F5
102
{ACAD_XDICTIONARY
360
7A7
102
}
102
{ACAD_REACTORS
330
EF
102
}
330
EF
100
AcDbVisualStyle
  2

 70
     4
 71
     0
 72
     2
 73
     1
 90
        0
 40
-0.6
 41
-30.0
 62
     5
 63
     7
 74
     1
 91
        4
 64
     7
 65
   257
 75
     1
175
     1
 42
1.0
 92
        0
 66
   257
 43
1.0
 76
     1
 77
     6
 78
     2
 67
     7
 79
     5
170
     0
171
     0
290
     0
174
     0
 93
        1
 44
0.0
173
     0
291
     0
 45
0.0
1001
ACAD
1000
AcDbSavedByObjectVersion
1070
     0
  0
VISUALSTYLE
  5
F4
102
{ACAD_XDICTIONARY
360
7A5
102
}
102
{ACAD_REACTORS
330
EF
102
}
330
EF
100
AcDbVisualStyle
  2

 70
     7
 71
     1
 72
     0
 73
     1
 90
        0
 40
-0.6
 41
-30.0
 62
     5
 63
     7
 74
     0
 91
        4
 64
     7
 65
   257
 75
     1
175
     1
 42
1.0
 92
        8
 66
     7
 43
1.0
 76
     1
 77
     6
 78
     2
 67
     7
 79
     5
170
     0
171
     0
290
     0
174
     0
 93
        1
 44
0.0
173
     0
291
     1
 45
0.0
1001
ACAD
1000
AcDbSavedByObjectVersion
1070
     0
  0
VISUALSTYLE
  5
FB
102
{ACAD_XDICTIONARY
360
7B3
102
}
102
{ACAD_REACTORS
330
EF
102
}
330
EF
100
AcDbVisualStyle
  2

 70
    12
 71
     2
 72
     2
 73
     1
 90
        0
 40
-0.6
 41
-30.0
 62
     5
 63
     7
 74
     1
 91
        4
 64
     7
 65
   257
 75
     1
175
     1
 42
1.0
 92
        8
 66
     7
 43
1.0
 76
     1
 77
     6
 78
     2
 67
     7
 79
     5
170
     0
171
     0
290
     0
174
     0
 93
        1
 44
50.0
173
     0
291
     1
 45
0.0
1001
ACAD
1000
AcDbSavedByObjectVersion
1070
     0
  0
VISUALSTYLE
  5
FF
102
{ACAD_XDICTIONARY
360
7BB
102
}
102
{ACAD_REACTORS
330
EF
102
}
330
EF
100
AcDbVisualStyle
  2

 70
    16
 71
     2
 72
     2
 73
     3
 90
        0
 40
-0.6
 41
-30.0
 62
     5
 63
     8
 74
     1
 91
        4
 64
     7
 65
   257
 75
     1
175
     1
 42
1.0
 92
        8
 66
     8
 43
1.0
 76
     1
 77
     6
 78
     2
 67
     7
 79
     5
170
     0
171
     0
290
     0
174
     0
 93
        1
 44
0.0
173
     0
291
     1
 45
0.0
1001
ACAD
1000
AcDbSavedByObjectVersion
1070
     0
  0
VISUALSTYLE
  5
F8
102
{ACAD_XDICTIONARY
360
7AD
102
}
102
{ACAD_REACTORS
330
EF
102
}
330
EF
100
AcDbVisualStyle
  2

 70
     9
 71
     3
 72
     2
 73
     1
 90
        0
 40
-0.6
 41
-30.0
 62
     5
 63
     7
 74
     2
 91
        2
 64
     7
 65
   257
 75
     1
175
     1
 42
40.0
 92
        8
 66
     7
 43
1.0
 76
     1
 77
     6
 78
     2
 67
     7
 79
     3
170
     0
171
     0
290
     0
174
     0
 93
        1
 44
0.0
173
     0
291
     0
 45
0.0
1001
ACAD
1000
AcDbSavedByObjectVersion
1070
     0
  0
VISUALSTYLE
  5
FA
102
{ACAD_XDICTIONARY
360
7B1
102
}
102
{ACAD_REACTORS
330
EF
102
}
330
EF
100
AcDbVisualStyle
  2

 70
    11
 71
     2
 72
     2
 73
     1
 90
        0
 40
-0.6
 41
-30.0
 62
     5
 63
     7
 74
     1
 91
        4
 64
     7
 65
   257
 75
     1
175
     1
 42
1.0
 92
        8
 66
     7
 43
1.0
 76
     1
 77
     6
 78
     2
 67
     7
 79
     5
170
     0
171
     0
290
     0
174
     0
 93
        1
 44
-50.0
173
     0
291
     1
 45
0.0
1001
ACAD
1000
AcDbSavedByObjectVersion
1070
     0
  0
VISUALSTYLE
  5
1E6
102
{ACAD_XDICTIONARY
360
7C1
102
}
102
{ACAD_REACTORS
330
EF
102
}
330
EF
100
AcDbVisualStyle
  2

 70
    22
 71
     2
 72
     2
 73
     0
 90
        0
 40
-0.6
 41
-30.0
 62
     5
 63
     7
 74
     1
 91
        4
 64
     7
 65
   257
 75
     1
175
     1
 42
1.0
 92
        8
 66
     7
 43
1.0
 76
     1
 77
     6
 78
     2
 67
     7
 79
     5
170
     0
171
     0
290
     0
174
     0
 93
        1
 44
0.0
173
     0
291
     1
 45
0.0
1001
ACAD
1000
AcDbSavedByObjectVersion
1070
     0
  0
VISUALSTYLE
  5
FE
102
{ACAD_XDICTIONARY
360
7B9
102
}
102
{ACAD_REACTORS
330
EF
102
}
330
EF
100
AcDbVisualStyle
  2

 70
    15
 71
     2
 72
     2
 73
     1
 90
        0
 40
-0.6
 41
-30.0
 62
     5
 63
     7
 74
     1
 91
        4
 64
     7
 65
   257
 75
     1
175
     1
 42
1.0
 92
        8
 66
     7
 43
1.0
 76
     1
 77
     6
 78
     2
 67
     7
 79
     5
170
     0
171
     0
290
     0
174
     0
 93
        1
 44
0.0
173
     0
291
     1
 45
0.0
1001
ACAD
1000
AcDbSavedByObjectVersion
1070
     0
  0
VISUALSTYLE
  5
F0
102
{ACAD_XDICTIONARY
360
79D
102
}
102
{ACAD_REACTORS
330
EF
102
}
330
EF
100
AcDbVisualStyle
  2

 70
     0
 71
     2
 72
     1
 73
     1
 90
        2
 40
-0.6
 41
30.0
 62
     5
 63
     7
 74
     0
 91
        0
 64
     7
 65
   257
 75
     1
175
     1
 42
1.0
 92
        8
 66
     7
 43
1.0
 76
     1
 77
     6
 78
     2
 67
     7
 79
     5
170
     0
171
     0
290
     0
174
     0
 93
       13
 44
0.0
173
     0
291
     1
 45
0.0
1001
ACAD
1000
AcDbSavedByObjectVersion
1070
     0
  0
VISUALSTYLE
  5
F1
102
{ACAD_XDICTIONARY
360
79F
102
}
102
{ACAD_REACTORS
330
EF
102
}
330
EF
100
AcDbVisualStyle
  2

 70
     1
 71
     2
 72
     1
 73
     1
 90
        2
 40
-0.6
 41
30.0
 62
     5
 63
     7
 74
     1
 91
        0
 64
     7
 65
   257
 75
     1
175
     1
 42
1.0
 92
        0
 66
   257
 43
1.0
 76
     1
 77
     6
 78
     2
 67
     7
 79
     5
170
     0
171
     0
290
     0
174
     0
 93
       13
 44
0.0
173
     0
291
     1
 45
0.0
1001
ACAD
1000
AcDbSavedByObjectVersion
1070
     0
  0
VISUALSTYLE
  5
F2
102
{ACAD_XDICTIONARY
360
7A1
102
}
102
{ACAD_REACTORS
330
EF
102
}
330
EF
100
AcDbVisualStyle
  2

 70
     2
 71
     2
 72
     2
 73
     1
 90
        2
 40
-0.6
 41
30.0
 62
     5
 63
     7
 74
     0
 91
        0
 64
     7
 65
   257
 75
     1
175
     1
 42
1.0
 92
        0
 66
     7
 43
1.0
 76
     1
 77
     6
 78
     2
 67
     7
 79
     5
170
     0
171
     0
290
     0
174
     0
 93
       13
 44
0.0
173
     0
291
     1
 45
0.0
1001
ACAD
1000
AcDbSavedByObjectVersion
1070
     0
  0
VISUALSTYLE
  5
F3
102
{ACAD_XDICTIONARY
360
7A3
102
}
102
{ACAD_REACTORS
330
EF
102
}
330
EF
100
AcDbVisualStyle
  2

 70
     3
 71
     2
 72
     2
 73
     1
 90
        2
 40
-0.6
 41
30.0
 62
     5
 63
     7
 74
     1
 91
        0
 64
     7
 65
   257
 75
     1
175
     1
 42
1.0
 92
        0
 66
   257
 43
1.0
 76
     1
 77
     6
 78
     2
 67
     7
 79
     5
170
     0
171
     0
290
     0
174
     0
 93
       13
 44
0.0
173
     0
291
     1
 45
0.0
1001
ACAD
1000
AcDbSavedByObjectVersion
1070
     0
  0
VISUALSTYLE
  5
F7
102
{ACAD_XDICTIONARY
360
7AB
102
}
102
{ACAD_REACTORS
330
EF
102
}
330
EF
100
AcDbVisualStyle
  2

 70
     6
 71
     1
 72
     2
 73
     2
 90
        0
 40
-0.6
 41
-30.0
 62
     5
 63
     7
 74
     2
 91
        2
 64
     7
 65
   257
 75
     2
175
     1
 42
40.0
 92
        0
 66
   257
 43
1.0
 76
     1
 77
     6
 78
     2
 67
     7
 79
     3
170
     0
171
     0
290
     0
174
     0
 93
        1
 44
0.0
173
     0
291
     0
 45
0.0
1001
ACAD
1000
AcDbSavedByObjectVersion
1070
     0
  0
VISUALSTYLE
  5
1E4
102
{ACAD_XDICTIONARY
360
7BD
102
}
102
{ACAD_REACTORS
330
EF
102
}
330
EF
100
AcDbVisualStyle
  2

 70
    20
 71
     2
 72
     2
 73
     0
 90
        0
 40
-0.6
 41
-30.0
 62
     5
 63
     7
 74
     1
 91
        4
 64
     7
 65
   257
 75
     1
175
     1
 42
1.0
 92
       10
 66
     7
 43
1.0
 76
     1
 77
     6
 78
     2
 67
     7
 79
     5
170
     0
171
     0
290
     0
174
     0
 93
        1
 44
0.0
173
     0
291
     1
 45
0.0
1001
ACAD
1000
AcDbSavedByObjectVersion
1070
     0
  0
VISUALSTYLE
  5
FD
102
{ACAD_XDICTIONARY
360
7B7
102
}
102
{ACAD_REACTORS
330
EF
102
}
330
EF
100
AcDbVisualStyle
  2

 70
    14
 71
     2
 72
     2
 73
     1
 90
        0
 40
-0.6
 41
-30.0
 62
     5
 63
     7
 74
     1
 91
        4
 64
     7
 65
   257
 75
     7
175
     7
 42
1.0
 92
        8
 66
     7
 43
1.0
 76
     1
 77
     6
 78
     2
 67
     7
 79
     5
170
     0
171
     0
290
     0
174
     0
 93
        1
 44
0.0
173
     0
291
     1
 45
0.0
1001
ACAD
1000
AcDbSavedByObjectVersion
1070
     0
  0
VISUALSTYLE
  5
1E5
102
{ACAD_XDICTIONARY
360
7BF
102
}
102
{ACAD_REACTORS
330
EF
102
}
330
EF
100
AcDbVisualStyle
  2

 70
    21
 71
     2
 72
     2
 73
     0
 90
        0
 40
-0.6
 41
-30.0
 62
     5
 63
     7
 74
     1
 91
        4
 64
     7
 65
   257
 75
     1
175
     1
 42
1.0
 92
        9
 66
     7
 43
1.0
 76
     1
 77
     6
 78
     2
 67
     7
 79
     5
170
     0
171
     0
290
     0
174
     0
 93
        1
 44
0.0
173
     0
291
     1
 45
0.0
1001
ACAD
1000
AcDbSavedByObjectVersion
1070
     0
  0
VISUALSTYLE
  5
F9
102
{ACAD_XDICTIONARY
360
7AF
102
}
102
{ACAD_REACTORS
330
EF
102
}
330
EF
100
AcDbVisualStyle
  2

 70
     8
 71
     2
 72
     3
 73
     0
 90
        2
 40
-0.6
 41
30.0
 62
     5
 63
     7
 74
     0
 91
        0
 64
     7
 65
   257
 75
     1
175
     1
 42
1.0
 92
        8
 66
   257
 43
1.0
 76
     1
 77
     6
 78
     2
 67
     7
 79
     3
170
     0
171
     0
290
     0
174
     0
 93
       13
 44
0.0
173
     0
291
     0
 45
0.0
1001
ACAD
1000
AcDbSavedByObjectVersion
1070
     0
  0
VISUALSTYLE
  5
1F3
102
{ACAD_XDICTIONARY
360
7CB
102
}
102
{ACAD_REACTORS
330
EF
102
}
330
EF
100
AcDbVisualStyle
  2

 70
    27
 71
     2
 72
     2
 73
     1
 90
        2
 40
-0.6
 41
30.0
 62
     5
 63
     7
 74
     0
 91
        4
 64
     7
 65
   257
 75
     1
175
     1
 42
1.0
 92
        8
 66
   257
 43
1.0
 76
     1
 77
     6
 78
     2
 67
     8
 79
     3
170
     0
171
     0
290
     0
174
     0
 93
        5
 44
0.0
173
     0
291
     0
 45
0.0
1001
ACAD
1000
AcDbSavedByObjectVersion
1070
     0
  0
VISUALSTYLE
  5
1F2
102
{ACAD_XDICTIONARY
360
7C9
102
}
102
{ACAD_REACTORS
330
EF
102
}
330
EF
100
AcDbVisualStyle
  2

 70
    26
 71
     2
 72
     2
 73
     1
 90
        2
 40
-0.6
 41
30.0
 62
     5
 63
     7
 74
     1
 91
       10
 64
     7
 65
   257
 75
     2
175
     1
 42
1.0
 92
        8
 66
   257
 43
1.0
 76
     1
 77
     6
 78
     2
 67
     7
 79
     3
170
     0
171
     0
290
     0
174
     0
 93
        5
 44
0.0
173
     0
291
     0
 45
0.0
1001
ACAD
1000
AcDbSavedByObjectVersion
1070
     0
  0
VISUALSTYLE
  5
1EF
102
{ACAD_XDICTIONARY
360
7C3
102
}
102
{ACAD_REACTORS
330
EF
102
}
330
EF
100
AcDbVisualStyle
  2

 70
    23
 71
     2
 72
     2
 73
     3
 90
        0
 40
-0.6
 41
-30.0
 62
     5
 63
     7
 74
     2
 91
        2
 64
     7
 65
     7
 75
     1
175
     1
 42
40.0
 92
        8
 66
     7
 43
1.0
 76
     1
 77
     6
 78
     2
 67
     7
 79
     3
170
     0
171
     0
290
     0
174
     0
 93
        1
 44
0.0
173
     0
291
     0
 45
0.0
1001
ACAD
1000
AcDbSavedByObjectVersion
1070
     0
  0
VISUALSTYLE
  5
1F0
102
{ACAD_XDICTIONARY
360
7C5
102
}
102
{ACAD_REACTORS
330
EF
102
}
330
EF
100
AcDbVisualStyle
  2

 70
    24
 71
     1
 72
     2
 73
     2
 90
        0
 40
-0.6
 41
-30.0
 62
     5
 63
     7
 74
     2
 91
        2
 64
     7
 65
     7
 75
     1
175
     1
 42
40.0
 92
       11
 66
     7
 43
1.0
 76
     1
 77
     6
 78
     2
 67
     7
 79
     6
170
     0
171
     0
290
     0
174
     0
 93
        1
 44
0.0
173
     0
291
     0
 45
0.0
1001
ACAD
1000
AcDbSavedByObjectVersion
1070
     0
  0
VISUALSTYLE
  5
FC
102
{ACAD_XDICTIONARY
360
7B5
102
}
102
{ACAD_REACTORS
330
EF
102
}
330
EF
100
AcDbVisualStyle
  2

 70
    13
 71
     2
 72
     2
 73
     1
 90
        0
 40
-0.6
 41
-30.0
 62
     5
 63
     7
 74
     1
 91
        4
 64
     7
 65
   257
 75
     1
175
     1
 42
1.0
 92
       12
 66
     7
 43
1.0
 76
     1
 77
     6
 78
     2
 67
     7
 79
     5
170
     0
171
     0
290
     0
174
     0
 93
        1
 44
0.0
173
     0
291
     1
 45
0.0
1001
ACAD
1000
AcDbSavedByObjectVersion
1070
     0
  0
VISUALSTYLE
  5
F6
102
{ACAD_XDICTIONARY
360
7A9
102
}
102
{ACAD_REACTORS
330
EF
102
}
330
EF
100
AcDbVisualStyle
  2

 70
     5
 71
     0
 72
     2
 73
     0
 90
        0
 40
-0.6
 41
-30.0
 62
     5
 63
     7
 74
     1
 91
        4
 64
     7
 65
   257
 75
     1
175
     1
 42
1.0
 92
        0
 66
   257
 43
1.0
 76
     1
 77
     6
 78
     2
 67
     7
 79
     3
170
     0
171
     0
290
     0
174
     0
 93
        1
 44
0.0
173
     0
291
     0
 45
0.0
1001
ACAD
1000
AcDbSavedByObjectVersion
1070
     0
  0
VISUALSTYLE
  5
1F1
102
{ACAD_XDICTIONARY
360
7C7
102
}
102
{ACAD_REACTORS
330
EF
102
}
330
EF
100
AcDbVisualStyle
  2

 70
    25
 71
     2
 72
     2
 73
     1
 90
        1
 40
0.5
 41
-30.0
 62
     5
 63
     7
 74
     1
 91
        0
 64
     7
 65
   257
 75
     1
175
     1
 42
1.0
 92
        8
 66
     7
 43
1.0
 76
     1
 77
     6
 78
     2
 67
     7
 79
     3
170
     0
171
     0
290
     0
174
     0
 93
       13
 44
0.0
173
     0
291
     0
 45
0.0
1001
ACAD
1000
AcDbSavedByObjectVersion
1070
     0
  0
DICTIONARYVAR
  5
146
102
{ACAD_REACTORS
330
5E
102
}
330
5E
100
DictionaryVariables
280
     0
  1
1:1
  0
DICTIONARYVAR
  5
145
102
{ACAD_REACTORS
330
5E
102
}
330
5E
100
DictionaryVariables
280
     0
  1
STANDARD
  0
DICTIONARYVAR
  5
84
102
{ACAD_REACTORS
330
5E
102
}
330
5E
100
DictionaryVariables
280
     0
  1
STANDARD
  0
DICTIONARYVAR
  5
227
102
{ACAD_REACTORS
330
5E
102
}
330
5E
100
DictionaryVariables
280
     0
  1
Metric50
  0
DICTIONARYVAR
  5
228
102
{ACAD_REACTORS
330
5E
102
}
330
5E
100
DictionaryVariables
280
     0
  1
Metric50
  0
DICTIONARYVAR
  5
5F
102
{ACAD_REACTORS
330
5E
102
}
330
5E
100
DictionaryVariables
280
     0
  1
2
  0
DICTIONARYVAR
  5
63
102
{ACAD_REACTORS
330
5E
102
}
330
5E
100
DictionaryVariables
280
     0
  1
1
  0
DICTIONARYVAR
  5
2E0
102
{ACAD_REACTORS
330
5E
102
}
330
5E
100
DictionaryVariables
280
     0
  1
0
  0
DICTIONARYVAR
  5
1AE
102
{ACAD_REACTORS
330
5E
102
}
330
5E
100
DictionaryVariables
280
     0
  1
0
  0
DICTIONARYVAR
  5
1AF
102
{ACAD_REACTORS
330
5E
102
}
330
5E
100
DictionaryVariables
280
     0
  1
0
  0
DICTIONARYVAR
  5
2DE
102
{ACAD_REACTORS
330
5E
102
}
330
5E
100
DictionaryVariables
280
     0
  1
2
  0
DICTIONARYVAR
  5
2DD
102
{ACAD_REACTORS
330
5E
102
}
330
5E
100
DictionaryVariables
280
     0
  1
1
  0
DICTIONARYVAR
  5
407
102
{ACAD_REACTORS
330
5E
102
}
330
5E
100
DictionaryVariables
280
     0
  1
80.000000
  0
DICTIONARYVAR
  5
406
102
{ACAD_REACTORS
330
5E
102
}
330
5E
100
DictionaryVariables
280
     0
  1
5.000000
  0
DICTIONARYVAR
  5
2DF
102
{ACAD_REACTORS
330
5E
102
}
330
5E
100
DictionaryVariables
280
     0
  1
127
  0
DICTIONARYVAR
  5
408
102
{ACAD_REACTORS
330
5E
102
}
330
5E
100
DictionaryVariables
280
     0
  1
2
  0
DICTIONARY
  5
799
330
D3
100
AcDbDictionary
280
     1
281
     1
  3
ACAD_XREC_ROUNDTRIP
360
79A
  0
DICTIONARY
  5
79B
330
D7
100
AcDbDictionary
280
     1
281
     1
  3
ACAD_XREC_ROUNDTRIP
360
79C
  0
DICTIONARY
  5
796
330
22
100
AcDbDictionary
280
     1
281
     1
  3
ACAD_XREC_ROUNDTRIP
360
797
  0
DICTIONARY
  5
1F9
330
ED
100
AcDbDictionary
280
     1
281
     1
  3
ACAD_XREC_ROUNDTRIP
360
33A
  3
FBXASSET
360
1FA
  0
DICTIONARY
  5
1F7
330
EC
100
AcDbDictionary
280
     1
281
     1
  3
ACAD_XREC_ROUNDTRIP
360
339
  3
FBXASSET
360
1F8
  0
DICTIONARY
  5
173
330
EE
100
AcDbDictionary
280
     1
281
     1
  3
ACAD_XREC_ROUNDTRIP
360
33B
  3
BUMPTILE
360
175
  3
DIFFUSETILE
360
174
  3
FBXASSET
360
1FB
  3
OPACITYTILE
360
176
  3
REFLECTIONTILE
360
177
  0
DICTIONARY
  5
162
330
7F
100
AcDbDictionary
280
     1
281
     1
  3
ACAD_ROUNDTRIP_2008_TABLESTYLE_CELLSTYLEMAP
360
793
  3
ACAD_XREC_ROUNDTRIP
360
798
  0
DICTIONARY
  5
7A7
330
F5
100
AcDbDictionary
280
     1
281
     1
  3
ACAD_XREC_ROUNDTRIP
360
7A8
  0
DICTIONARY
  5
7A5
330
F4
100
AcDbDictionary
280
     1
281
     1
  3
ACAD_XREC_ROUNDTRIP
360
7A6
  0
DICTIONARY
  5
7B3
330
FB
100
AcDbDictionary
280
     1
281
     1
  3
ACAD_XREC_ROUNDTRIP
360
7B4
  0
DICTIONARY
  5
7BB
330
FF
100
AcDbDictionary
280
     1
281
     1
  3
ACAD_XREC_ROUNDTRIP
360
7BC
  0
DICTIONARY
  5
7AD
330
F8
100
AcDbDictionary
280
     1
281
     1
  3
ACAD_XREC_ROUNDTRIP
360
7AE
  0
DICTIONARY
  5
7B1
330
FA
100
AcDbDictionary
280
     1
281
     1
  3
ACAD_XREC_ROUNDTRIP
360
7B2
  0
DICTIONARY
  5
7C1
330
1E6
100
AcDbDictionary
280
     1
281
     1
  3
ACAD_XREC_ROUNDTRIP
360
7C2
  0
DICTIONARY
  5
7B9
330
FE
100
AcDbDictionary
280
     1
281
     1
  3
ACAD_XREC_ROUNDTRIP
360
7BA
  0
DICTIONARY
  5
79D
330
F0
100
AcDbDictionary
280
     1
281
     1
  3
ACAD_XREC_ROUNDTRIP
360
79E
  0
DICTIONARY
  5
79F
330
F1
100
AcDbDictionary
280
     1
281
     1
  3
ACAD_XREC_ROUNDTRIP
360
7A0
  0
DICTIONARY
  5
7A1
330
F2
100
AcDbDictionary
280
     1
281
     1
  3
ACAD_XREC_ROUNDTRIP
360
7A2
  0
DICTIONARY
  5
7A3
330
F3
100
AcDbDictionary
280
     1
281
     1
  3
ACAD_XREC_ROUNDTRIP
360
7A4
  0
DICTIONARY
  5
7AB
330
F7
100
AcDbDictionary
280
     1
281
     1
  3
ACAD_XREC_ROUNDTRIP
360
7AC
  0
DICTIONARY
  5
7BD
330
1E4
100
AcDbDictionary
280
     1
281
     1
  3
ACAD_XREC_ROUNDTRIP
360
7BE
  0
DICTIONARY
  5
7B7
330
FD
100
AcDbDictionary
280
     1
281
     1
  3
ACAD_XREC_ROUNDTRIP
360
7B8
  0
DICTIONARY
  5
7BF
330
1E5
100
AcDbDictionary
280
     1
281
     1
  3
ACAD_XREC_ROUNDTRIP
360
7C0
  0
DICTIONARY
  5
7AF
330
F9
100
AcDbDictionary
280
     1
281
     1
  3
ACAD_XREC_ROUNDTRIP
360
7B0
  0
DICTIONARY
  5
7CB
330
1F3
100
AcDbDictionary
280
     1
281
     1
  3
ACAD_XREC_ROUNDTRIP
360
7CC
  0
DICTIONARY
  5
7C9
330
1F2
100
AcDbDictionary
280
     1
281
     1
  3
ACAD_XREC_ROUNDTRIP
360
7CA
  0
DICTIONARY
  5
7C3
330
1EF
100
AcDbDictionary
280
     1
281
     1
  3
ACAD_XREC_ROUNDTRIP
360
7C4
  0
DICTIONARY
  5
7C5
330
1F0
100
AcDbDictionary
280
     1
281
     1
  3
ACAD_XREC_ROUNDTRIP
360
7C6
  0
DICTIONARY
  5
7B5
330
FC
100
AcDbDictionary
280
     1
281
     1
  3
ACAD_XREC_ROUNDTRIP
360
7B6
  0
DICTIONARY
  5
7A9
330
F6
100
AcDbDictionary
280
     1
281
     1
  3
ACAD_XREC_ROUNDTRIP
360
7AA
  0
DICTIONARY
  5
7C7
330
1F1
100
AcDbDictionary
280
     1
281
     1
  3
ACAD_XREC_ROUNDTRIP
360
7C8
  0
XRECORD
  5
79A
102
{ACAD_REACTORS
330
799
102
}
330
799
100
AcDbXrecord
280
     1
102
SHADEPLOT
 70
     0
102
SHADEPLOTRESLEVEL
 70
     2
102
SHADEPLOTCUSTOMDPI
 70
   300
  0
XRECORD
  5
79C
102
{ACAD_REACTORS
330
79B
102
}
330
79B
100
AcDbXrecord
280
     1
102
SHADEPLOT
 70
     0
102
SHADEPLOTRESLEVEL
 70
     2
102
SHADEPLOTCUSTOMDPI
 70
   300
  0
XRECORD
  5
797
102
{ACAD_REACTORS
330
796
102
}
330
796
100
AcDbXrecord
280
     1
102
SHADEPLOT
 70
     0
102
SHADEPLOTRESLEVEL
 70
     2
102
SHADEPLOTCUSTOMDPI
 70
   300
  0
XRECORD
  5
33A
102
{ACAD_REACTORS
330
1F9
102
}
330
1F9
100
AcDbXrecord
280
     1
102
MATERIAL
148
0.0
149
0.0
149
0.0
 93
        0
 94
      127
282
     0
 72
     1
 77
     1
171
     1
175
     1
179
     1
273
     0
  0
XRECORD
  5
1FA
102
{ACAD_REACTORS
330
1F9
102
}
330
1F9
100
AcDbXrecord
280
     1
 70
     1
 90
429727718
  1
D62C5603-E3A1-4AEA-B7FB-FE5D8D0755AF
310
504B03040A0000080000CC70623B3DEE336E79000000790000001B0000006175746F6465736B2D64657369676E2D7061636B6167652E786D6C3C3F786D6C2076657273696F6E3D22312E302220656E636F64696E673D227574662D3822203F3E3C666F726D6174733E3C666F726D61743E687474703A2F2F736368656D612E
310
6175746F6465736B2E636F6D2F64657369676E2D7061636B6167652F323030393C2F666F726D61743E3C2F666F726D6174733E504B0304140006080800CC70623BD486FD9CA0000000F4000000130000005B436F6E74656E745F54797065735D2E786D6C7D8EC10E82300C865F65E91D8A1E8C310C0EEA1BF002731658846E
310
D98AC1B77784ABF1D8FE5FBFBF75BBCE937A534CCEB38643598122B6FEE978D0B0485F9C41B54DDD7D022595594E1A469170414C76A4D9A4D207E29CF43ECE46F218070CC6BECC4078ACAA135ACF422C856C0E68EA1BF5669944DDD7BCDE7B1F8E415D77AECB980613C2E4AC91FC167A2B244592486606FC29C8FD7F045B9A
310
EF7053A7E60B504B0304140006080800CC70623B853B8169EB0000007C01000008000000636F72652E786D6C8D90416EC3201045AF62CDB6C206821CC7C244919D9CA01740401C94182C03558F5F9C3852BBEB6A467FFE9B197D7EFC9E1EC5975982F5AE035262288C535E5B377690E21535501C055FBC8FBF6C503839990E
310
5619041F179FE64D52DE45E362569DD7661365082642A11EB9E920A89B99642953CC8E702F67A9EE7234257977194EC9EAE275C4EABCCF5EAD5940D4AC6F0E35A568B8F43562CD7046CD199FD07E60174276A7BE677B5EADB0E0D14EEFFB6A31321A0D82627C4084204C3F096B71DD52F6819B16635EADF63F509AF53FA164
310
5DDCD1EDDD17164090FCC8732078B56691CB33A85CD7DCC40F504B0304140006080800CC70623B55019EA25F0000007C00000007000000636E782E786D6C4DCB3B0E80201045D1AD90E915ED2CF8AC45050C11660C8261F98AB1B07AC9C97D42D718D865D3E909258CFD00CCE24AC6E326A164D74DC0B4128928FF32603847
310
2BA13128B1252AC747C6BAB984FC68F0B87FE8960A5C09FE86CFB69FBA01504B0304140006080800CC70623BDBABAAF470010000D40300000C0000006662782F636F72652E786D6CC553D16E823014FD95A6AF4B694182CC941A83FA05FB810A9511A125A5257EFE2E82712ECEB8A7F100CD39F7F69E734AF9FADC366850B6
310
AF8DCE7018308C942E4C59EB2AC3DE1D498AD15A706B8CFB56869196ADCAF00863C12B6B7C374385D14E6907A836A59A41D9F7CA615434B0C8705F7CAA5606D23BA8E84F41278B93AC54100640439DE0BDB320004D43C63716C7C399D30917DCFBBA9CD9BA8469F5B156168B24CED3F7248AC8769F27244EB73B92EED8862C
310
B7F13E0C179B3C8F979C8ECD82BBBABDAA2BAC924E9558448CBD9330242CFA08E3154B5651FCC6D215639C8EE5774DBE2B5F6CF2B5768B68963BB5F5588420E442FC700B1139D4CB01F450C1E918227C2E09DF070D8140C84E1E9AAB8F1340832A9CB13130A5F1376A908D57309505ECF2A0DF179C4E9D30F5B239B87E3823
310
7A79C6F31DE1A8A5AEC08474B03C7837EAE4938639B44E5932B833D2C6B6B279CDC613877FA26EE21F4A2A4C63EC7F29A2F301D1F9F7A0E37D145F504B0304140006080800CC70623B9C113CC27E0000009D0000000B0000006662782F636E782E786D6C4DCCDF0A83201C86E15B91DFB94BFB330DD428C8FB886521330DA7
310
6397BF1A1DECE883878F57749FCDA1B7892F1BBC047A23808C7F84D9FA55424E0BE6803A256208E9EF06C84F9B91703228B1C690F78B66B34CD9A5439DF5CF0BFBF65E35BCA1B8D6A5C6F540381E886698B5741C695F9503EBA150A2F8958E3DC3EA0B504B0304140006080800CC70623B7DF2F77C2A010000120200003100
310
00006662782F41393633353835312D344632462D344230382D423046372D3739314545314133324237412F636F72652E786D6C8D51DB8EC22014FC15C2939B0D2DB4B45643319AE817EC0F6041255A68B86CFCFC856D4D76DF7CE190393373060EDB3DC707F856CE6B6B7A480A0C81328395DA5C7B18C3057510EC3873D686
310
3F34088C18550F330C39BB3A1BA7051AAC09CA84841A2BD5020AEF55806078A44B0FFD7053A328440C89E1EFC52486BBB8AA8214A99D789CF9E05200300FC927E4FB4D5B375D43103D5527440FB843077C5AA3F5861C8F645F5787F59E95B390B318B55CE45AA638FAA2957BD7248B390B7A7CC51F9C124149C82B8C378810
310
84AB2F42B7B8DD56F413775B8C5999E9FF4471926F8AA236A1AE96B8B3CC434E5839373893369E1FAF30EA395917409EB7F26AF8801C171837A4A6AC9C89E9F9C9B1A58BA30FD6A5EF5DDDCF894B9AD9B6A59C957943A9FCAE2FD5BC4DFE03504B0304140006080800CC70623BAD7543B64E01000033030000300000006662
310
782F41393633353835312D344632462D344230382D423046372D3739314545314133324237412F636E782E786D6CD593CD6EC32010845F0571AD6CE3D48AD20813A9873E410FBD12D82434182C7EAAE6EDBB2424CD25871E7B41D6EC30B3FA84F9E67BB2E40B4234DE8DB46F1925E094D7C6ED479AD3AE5951B2113C789FEE
310
6C943839C1488B4C05DF079FE72A69D8C96C13AAD6B8631503449F83828872B949AC57D26200B826A308D316B4064D6E46FCDA41C05550DC9E483A00797BFD207EFB092A45DE9514C1BBD22178396BD39D891265658C238DEA00936C654E5E433CB65A26D9F6EDB5EBC14EBF49A45CB856E66048291F6939A9A81BB5C89177
310
38143CA680F4AA299D66A042CEB3354A2684DC9D8D178FE0D9B8B41CAAD720F880EE7EF93C0C18769E099ECC04D5A102C8049A8A05632F4DDF376CF1DE0F6BB65C2F8627B65A33C6BB62177CEBBDAD973006829F89F22E814B54F4BC2BE347F8AA8F681390B50FA73F804400B5F542E796F19FF974E7F78DB802FE05E20750
310
4B0304140006080800CC70623BE75B7789680500003C100000340000006662782F41393633353835312D344632462D344230382D423046372D3739314545314133324237412F6F626A656374732E786D6CAD575B8F9B3818FD2B887D06C22499CB8AA1CA655245D5B455A356FB305264C061D8018C6C3393D95FBFC7600890
310
A4CD5EF210B0B1BFEBF98E3F7B1FF6596ABC522E1296DF9BAE3D320D9A872C4AF2F8DE2CE5CEBA358D0FBEC719939D65A691938CDE9B6ADAF4BD98B3B2D05311DD91329583D9D5FC0F438434A7A611A644887B5384CF34233629258BA878B12322891DEFF6B66BD70BFB62634E8AE781D082709A4B588AF91C528CDA28B73F
310
1C998EEF39EABBEFA97FBD6A7C7E9553F9D3D79FE442923C3C523610337627CB87ABE99D359D4CC6D6E4FACAB5E6ABF9D2726FC6A3C5F56271377BB88362213924694B38DD99FE47C48627A1E7D49F5A8BB5E1A74C0A599ED3B0F21F1E56366B89112D681E218F0915D0D6F17AD41FBA2A369DCF6335D62ABBD39779D5DDD1
310
11D4D8DE3CBB96B2E04FB8202E41051754A1AA8E8F76B4C6DFE810B580B1547F4B84911149794252234D024EF8BBE963A95AE27B3D310A9D5C215C7960FAEE415ED75694C6AFB17BCACA5D99A60A9AA65F217B0BFC53292ACB92BF283FAD0D3621576592CB5BED907C2FA8E9DF794E35E97BEA31BED21FEB401ABB94C44839
310
DCACBF0E1C5DA8DA5B2F4DFFD32AD86F543D9E565E7056502E157C00AD2671CD534549AB752FCA9CDA00677A313F04E51B22FF19E57B300579E3C97EB29F682D92935CEC18CF901B7B54FD8C51F362B56FC72FE0B3C1EAE335EDCCBF5AEC39ADB17DC238973F804BA5E6F6BFE7AF1FB32E523BE9F3BD571418E3631DCA4D48
310
5250CF639223210A9446CA30052EDF057BD35F8329C1ECD84552BF0DC8D18BE7BCE23BFE6BD960AB4A7DE79923A103BEBD80F911CBAA2C60DB19B01CF164A5583B772EE6D3FFA56666CBCDA74DC97724A48F9A58967497E489C4D979006FD7A05E227A1EBDD0F737C623387A9C844D3709995625106D157315F8B8392CD4E0
310
A0B9A720C4BE9829CEF37EA1E13111214D53925356365ADA634861B52519DD27A00AEB808EAF0628E6F435519D446F45CF2C9CF5214F0A15B2F6D06B79DA3EE3CBF7F56780D2F4E7EF73A0F5E5B02A38D07DC852C6B7C1FBB6664213E0C39E3EBA7FF4E1AD23EA2829407C85E586727488B751B2DB9502BC7B228A3FD68B6E
310
A65A22397E690AA8D158D7E404EC8CDA235CC3B7D1898680131CEC2CDF2638C65196279577750F15884AEE19F94199155B92B13297978469D4F8D358DF0AEF7631E28DC8F0D9F437D5D39A83B2231A1D52D543813A824EF8D44BCFF2FA6A31BD1E8DAD87F1CCB526B3879935BF59CDADD5C37479BB1CDD4CA7B3556B516589
310
EF352754B706114D9C885EC9131DE6EFEB43D99AFE2391C2F958179413D7CFEF6B1B6DB1E7600F00DE6E5C67454A339A4BA2E0FBA85ED26F045D454F463DBFCE484C2F90F2E5E3666003662ED8F755951A7D1BECD5B30B550B2785C8E7320B7292A4838DDA71BBC863ED7613CAF659337A3354231D4FF4A182A54904C2898C
310
98B28C4AD0CE056CCF332A80986E571EE9DBC305BB5FEB7E509220A58D25CF042D712A806AC0AD0C657FDEF80D2D9CEAA2EE4D1C76F60BFE74219A06527D6F82DF6412526107381E55E353090704D085B52408A8913C4ED159D79BDA71BB4BC506F4831350EB6F975CD22D69BF7AC49B91A2C0A9DDA3D5CA36AD20FC478E37
310
E61844E2352865EBCB61A275A65283CAAA9DD27703B4102F5AF51EF5F573B75CBB5AD38BC845F7A49F82A0966A49C2E3EA5EA0ECD326CD965F1DB402C6FA8B51A4658C5C5E2EC9E214602E55810345408596591009A82E7E7FFACA19EEA299B14A0081A705CB3296EBC14CDF658DCD336EA6D1136881AAEB87B81AB9EE53D5
310
F5EB8BC8362082DA24122F98680A4E7930C01A0079749CEA14382A0783E5EBA5A10F8C098456A03D6A4AEB6BB881E2513747552A5DB22C7EDAF83BD5528081A365F7FF06504B0304140006080000CC70623B000000000000000000000000350000006662782F41393633353835312D344632462D344230382D423046372D37
310
39314545314133324237412F76657274696365732E62696E504B0304140006080800CC70623BF270F1330600000004000000360000006662782F41393633353835312D344632462D344230382D423046372D3739314545314133324237412F747269616E676C65732E62696E636660600000504B0304140006080000CC7062
310
3B000000000000000000000000370000006662782F41393633353835312D344632462D344230382D423046372D3739314545314133324237412F617474726962757465732E62696E504B0304140006080800CC70623B08DA0BD19000000041010000360000006662782F41393633353835312D344632462D344230382D4230
310
46372D3739314545314133324237412F6469726563746F72792E786D6C858F410AC3201045AF22B36F53E9A60B35CBEEBAE80D244E44489C6234F4F835464A48035D0DF398FF9F8AF63D0E6CC63039F212F8F9020C7D47C6792B21C5FE7403D62A1188E2E60C98D7234A5830286103A55745067B9D86B8A3CF9C7F90C11DE6
310
07FB144396D7B6A82D282E9A152AD114D5EF2CB866EEE831B8EEA07A7BB5A8D7D61A2BAAEB7FD5F70921FF497D00504B0304140006080800CC70623BEDD1DC58FD000000A00100003B0000006662782F41393633353835312D344632462D344230382D423046372D3739314545314133324237412F7265736F75726365732F
310
636F72652E786D6C8D504B6E833010BD0A9A6D65B00922041947112427E8052C33A156828DFCA97AFC9A40A576D7CDCCE87D344F8F9FBFE667F689CE6B6B3A6039850C8DB2A336530731DC4903D95970676DF82583CCC8193B5861107C72362E3BA4AC096842428D1D7107A5F7182053CF7474E0D507CE32973124857FE48B
310
540F3961CEF244279DE03EB81420DB9EAC1384436FA353E879B1B182C7A8C75DA3C7F453DF353A1075D537A7BA6464B8F535A99AE14A9A2BBD90E350DD183B5CFABE3AF262350B1EF4FC9351399401471025A527C218A1E53BAB5A5AB765F5469B96525EACF23FA6B88CFF34456DC2A1DCE36E360F82A5202F42F062ED2BAD
310
579969AFDD8A6F504B010214000A0000080000CC70623B3DEE336E79000000790000001B00000000000000000000000000000000006175746F6465736B2D64657369676E2D7061636B6167652E786D6C504B01021400140006080800CC70623BD486FD9CA0000000F40000001300000000000000000000000000B20000005B
310
436F6E74656E745F54797065735D2E786D6C504B01021400140006080800CC70623B853B8169EB0000007C010000080000000000000000000000000083010000636F72652E786D6C504B01021400140006080800CC70623B55019EA25F0000007C000000070000000000000000000000000094020000636E782E786D6C504B
310
01021400140006080800CC70623BDBABAAF470010000D40300000C00000000000000000000000000180300006662782F636F72652E786D6C504B01021400140006080800CC70623B9C113CC27E0000009D0000000B00000000000000000000000000B20400006662782F636E782E786D6C504B01021400140006080800CC70
310
623B7DF2F77C2A010000120200003100000000000000000000000000590500006662782F41393633353835312D344632462D344230382D423046372D3739314545314133324237412F636F72652E786D6C504B01021400140006080800CC70623BAD7543B64E010000330300003000000000000000000000000000D2060000
310
6662782F41393633353835312D344632462D344230382D423046372D3739314545314133324237412F636E782E786D6C504B01021400140006080800CC70623BE75B7789680500003C10000034000000000000000000000000006E0800006662782F41393633353835312D344632462D344230382D423046372D3739314545
310
314133324237412F6F626A656374732E786D6C504B01021400140006080000CC70623B0000000000000000000000003500000000000000000000000000280E00006662782F41393633353835312D344632462D344230382D423046372D3739314545314133324237412F76657274696365732E62696E504B01021400140006
310
080800CC70623BF270F133060000000400000036000000000000000000000000007B0E00006662782F41393633353835312D344632462D344230382D423046372D3739314545314133324237412F747269616E676C65732E62696E504B01021400140006080000CC70623B0000000000000000000000003700000000000000
310
000000000000D50E00006662782F41393633353835312D344632462D344230382D423046372D3739314545314133324237412F617474726962757465732E62696E504B01021400140006080800CC70623B08DA0BD1900000004101000036000000000000000000000000002A0F00006662782F41393633353835312D344632
310
462D344230382D423046372D3739314545314133324237412F6469726563746F72792E786D6C504B01021400140006080800CC70623BEDD1DC58FD000000A00100003B000000000000000000000000000E1000006662782F41393633353835312D344632462D344230382D423046372D3739314545314133324237412F7265
310
736F75726365732F636F72652E786D6C504B0506000000000E000E0080040000641100000000
  0
XRECORD
  5
339
102
{ACAD_REACTORS
330
1F7
102
}
330
1F7
100
AcDbXrecord
280
     1
102
MATERIAL
148
0.0
149
0.0
149
0.0
 93
        0
 94
      127
282
     0
 72
     1
 77
     1
171
     1
175
     1
179
     1
273
     0
  0
XRECORD
  5
1F8
102
{ACAD_REACTORS
330
1F7
102
}
330
1F7
100
AcDbXrecord
280
     1
 70
     1
 90
429727718
  1
30362254-06B7-45E0-A893-8CFA70E3D6BC
310
504B03040A0000080000CC70623B3DEE336E79000000790000001B0000006175746F6465736B2D64657369676E2D7061636B6167652E786D6C3C3F786D6C2076657273696F6E3D22312E302220656E636F64696E673D227574662D3822203F3E3C666F726D6174733E3C666F726D61743E687474703A2F2F736368656D612E
310
6175746F6465736B2E636F6D2F64657369676E2D7061636B6167652F323030393C2F666F726D61743E3C2F666F726D6174733E504B0304140006080800CC70623BD486FD9CA0000000F4000000130000005B436F6E74656E745F54797065735D2E786D6C7D8EC10E82300C865F65E91D8A1E8C310C0EEA1BF002731658846E
310
D98AC1B77784ABF1D8FE5FBFBF75BBCE937A534CCEB38643598122B6FEE978D0B0485F9C41B54DDD7D022595594E1A469170414C76A4D9A4D207E29CF43ECE46F218070CC6BECC4078ACAA135ACF422C856C0E68EA1BF5669944DDD7BCDE7B1F8E415D77AECB980613C2E4AC91FC167A2B244592486606FC29C8FD7F045B9A
310
EF7053A7E60B504B0304140006080800CC70623B1EC5D7A3EB0000007C01000008000000636F72652E786D6C8D90416EC3201045AF82665B6103C6756C6122AB4D4ED00B204C5C94182C03558F5F9C3852BBEB6A467FFE9B197D71FC9E6FE8CBACC17AD7032D0820E3B41FAD9B7A48F1820F808E52ACDEC75F36404ECDA687
310
4D0629A6D5A76597B477D1B89855E747B38B2A041301E95B6E7A08FAD3CCAA50296647B8168BD2573599823EBB0CA76447F43862C7BCCF5EAC59410E4DDD9C7973C2755553CCCFA4C603E3040F1565ED3B1FDE4E432BCA0D9622DAF9795FAF464533826484B498524CD807E51D79ED187F21878E10516EF63F505AC67F42C9
310
BA58B1FDDD071640D2FCC87D2045B96591CB3DA85CB7DCE40F504B0304140006080800CC70623B55019EA25F0000007C00000007000000636E782E786D6C4DCB3B0E80201045D1AD90E915ED2CF8AC45050C11660C8261F98AB1B07AC9C97D42D718D865D3E909258CFD00CCE24AC6E326A164D74DC0B4128928FF32603847
310
2BA13128B1252AC747C6BAB984FC68F0B87FE8960A5C09FE86CFB69FBA01504B0304140006080800CC70623B8C9102E971010000D40300000C0000006662782F636F72652E786D6CC5535B6E833010BC8AE5DF0A6C08340F1947A84D4ED00B38C6A128602363A31CBFCB234A53A551FA553EC09AD9F5CE8C31DB9E9B1AF5CA
310
7695D1198E428A91D2D214952E33ECDD315861B4E5CC1AE3BE9561A445A3323CC098B3D21ADFCE9034DA29ED00D5A6503328BA4E398C640D8B0C77F253352214DE4145770A5B214FA2546114020D759C75CE8200340D19DE981F0F6746269C33EFAB6266AB02A655C74A59CCF365BADC27CB5D902ED22848F6340DF238A141
310
BE88E2F57B92BFEDF23523433367AE6A2EEAA455C2A902F398D2751045018D3FA264435F3771F242571B4A1919CA6F9A7C5B3CD9E42BED16F12C776AEB308F40C848FC700B1139D4891EF410CEC810227CC6846F8386402064270EF5C5C709A05E49676C024C61FC95EA45ED154CA5211D1FF4FB8291A913A68E9B83EBBB33
310
E2A7673CDE118E5AE8124C0807CB8377834E366998436B950D7A7746DAD846D4CFD978E0F04FD455FC5D49D2D4C6FE9722321F10997F0F32DC47FE05504B0304140006080800CC70623BFFEA85907E0000009D0000000B0000006662782F636E782E786D6C4DCCD10A83201886E15B91FFDC95D95A811AB6F23E625948A6C3
310
E9D8E5AF46073BFAE0E1E365ED67B3E8ADC3CB78C7815C7240DA3DFC64DCC221C519D7805AC182F7F1EF06C88D9BE6703008B6049F9E274D7A1E938DBB5AE3D6131B2589BA0D3D965551E0B2EA732C9B9A624AAEB41E3A557677029960D9AFB4EF11165F504B0304140006080800CC70623B4FEEA4082C0100001202000031
310
0000006662782F39464131463745442D413632322D343644302D413938332D3331353338454246344243312F636F72652E786D6C8D515B6EC32010BC0AE2AB55850DD871ED0813254D72825EC00192A2C460F1A872FC42ED48ED5F7E00CDCECCCEB26C731F6FE05B39AFADE921293004CA082BB5B9F43086336A21D870E6AC
310
0D7F68109861543DCC30E4ECE26C9C164858139409093556AA051CBC570102714B8F1E7AF1A5C6A11862480C7F2DA6415C878B2A4891CA89C7990F2E050073937C42DE1DB7E4F87ED8A36D4329AA9B3D46DBAEAD504556557BD81DEBDD0761E52CE42C462D17B996298E3E6BE59E35C962CE821E1FF18553435012728A7187
310
0841987E927A8D9B35ADDF70BBC6989599FE4F1427F9A4286A132ABAC49D651EF234CD5CE04CDA78BA3DC2A8FB645D00B9DF8B57E215725C60BCA2A463E54C4CE327C7A65E1C7DB02E7DEFCBF594B864C5CA6CDBD49C957943E9FA5D5FBAF336F90F504B0304140006080800CC70623BAD7543B64E01000033030000300000
310
006662782F39464131463745442D413632322D343644302D413938332D3331353338454246344243312F636E782E786D6CD593CD6EC32010845F0571AD6CE3D48AD20813A9873E410FBD12D82434182C7EAAE6EDBB2424CD25871E7B41D6EC30B3FA84F9E67BB2E40B4234DE8DB46F1925E094D7C6ED479AD3AE5951B2113C
310
789FEE6C943839C1488B4C05DF079FE72A69D8C96C13AAD6B8631503449F83828872B949AC57D26200B826A308D316B4064D6E46FCDA41C05550DC9E483A00797BFD207EFB092A45DE9514C1BBD22178396BD39D891265658C238DEA00936C654E5E433CB65A26D9F6EDB5EBC14EBF49A45CB856E66048291F6939A9A81BB5
310
C8917738143CA680F4AA299D66A042CEB3354A2684DC9D8D178FE0D9B8B41CAAD720F880EE7EF93C0C18769E099ECC04D5A102C8049A8A05632F4DDF376CF1DE0F6BB65C2F8627B65A33C6BB62177CEBBDAD973006829F89F22E814B54F4BC2BE347F8AA8F681390B50FA73F804400B5F542E796F19FF974E7F78DB802FE05
310
E207504B0304140006080800CC70623B16AB87BA640500003C100000340000006662782F39464131463745442D413632322D343644302D413938332D3331353338454246344243312F6F626A656374732E786D6CAD575B6FA33818FD2B887DE6924B3BED8A326A92B68A663B534DD4D13E548A0C38942D60649B369D5FBFC7
310
600890A493BDE42160637FD7F31D7FF63E6FB3D478A55C242CBF3247B66B1A340F5994E4F19559CA8D75611A9F7D8F33263BCB4C232719BD32D5B4E97B316765A1A722BA21652A07B3B7B33F0D11D29C9A46981221AE4C113ED38CD8A4942CA2E2C58E882476BCD9DA23BB5ED8171B73523C0F841684D35CC252CCE79062D4
310
468DFA43D7747CCF51DF7D4FFDEB5593E3AB9CCA9FBEFE241792E4E19EB28198C968BAB8199F5D5A67D3E9C49A9E8F47D6EC76B6B0469F26EEFC7C3EBFBCBEB98462213924694B38DD98FE1D62C393D073EA4FADC5DAF04326852CCF6958F90F0F2B9BB5C48816348F90C7840A68EB78EDF68723159BCEE7891A6B95DDE9D3
310
BCEAEEE8086A6C6F9E5D4B59F0175C10A7A0820BAA5055C7473B5AE3CFDD452D602CD5DF12616444529E90D448938013FE6EFA58AA96F85E4F8C42275708571E98FE6827AF6B2B4AE3D7D83D64E5A64C53054DD3AF90BD06FEA9149565C94FCA0F6B834DC85599E4F2423B24DF0B6AFA979E534DFA9E7A4CC6FA631D486393
310
921829879BF5D781A373557BCB85E97FB90DB62B558F8795179C15944B051F40AB495CF35451D26A4727654E6D8033BD98EF82F21D91FF8AF2DD9982BCF1643BDD4EB516C9492E368C67C88DED563FC36D5EACF66DFF057C3658BDBFA69DF9578B3DA735B64F18C7F20770A9D45CFCF7FCF563D6456A277DBEF78A02637CA2
310
43B90A490AEAB94F72244481D24819A6C0E59B606BFA4B3025981DBB48EAB701D97BF19C577CC77F2D1B6C55A9EF3C732474C0B727303F625995056C3B02963D9EAC146BE78EC5FCEC7FA999EBC5EACBAAE41B12D27B4D2C0BBA49F244E2ECDC81B76B502F113D8F5EE8FB1BE3111CDD4FC2AA9B844CAB1288B68AB90A7CDC
310
1C166AB0D3DC5310625FCC14E779BFD0709F8890A629C9292B1B2DED31A4B0DA928CEE135085754027E3018A397D4D5427D15BD1330B677DC8934285AC3DF45A9EB68FF8F2B8FC0A509AFEECFD0FF2DE25CC6047F7214B195F07EFEB9A094D800F7BFAE8FED187B78EA8A3A400F115961BCAD1215E47C966530AF0EE8128FE
310
58CEBB996A8964FFA529A046635D9353B0336A8F700DDF46271A024E70B0B37C9DE01847591E54DED53D54202AB947E4076556AC49C6CA5C9E1226B7F1A7B1BE15DEED62C41B91E1B3E9AFAAA735036547343A925075041DF0A9979E893B391F8FCFA6967B3EFB644DCF6E5CEBFAE272625DCC6FAF3FB93793C5F90CE1EF57
310
407342756B10D1C489E8953CD1617E5CEECAD6F4EF8914CE5D5D504E5C3F1F9736DA62CFC11E00BCDDB8CC8A9466349744C1F75EBDA4DF09BA8A9E8C7A7E9991989E20E5DBDD6A6003664ED8F7A04A8DBE0DF6EAD9B9AA858342E47399053949D2C146EDB85DE4B176BB0965FBAC19BD19AA918E27FA50C1D22402E144464C
310
59462568E704B6E71915404CB72B8FF4EDE184DDAF753F284990D2C6926782963815403548A70C657FDEF80D2D9CEAA2AE4C1C76F60BFE74219A06527D6582DF6412526107381E55E353090704D085B52408D0933C4ED159D79BDA71BB4BC506F4831350EB6F979CD22D69BF7AC49B91A2C0A9DDA3D5CA36AD20FC478E37E6
310
1844E2352865EBCB6EA275A652E3836BE04EFB400BF1A2556F515F1FBB35B2AB35BD889C744FFA1004B5544B121E57F70215746DD2F5E2C1412B602CBF19455AC6C8E5E9922C4E01E65215385004546899059180EAFCF7A707CE7017CD8CDB0410789AB32C63B91E5CEBBBACB17AC6CD347A022D5075FD106377347AAABA7E
310
7D11590744509B44E205134DC1290F06580320F78E537D3D73540E06CB970B431F185308AD40BBD794D6D77003C5A36E8EAA54BA64597CD8F83BD552A080A365F7FF06504B0304140006080000CC70623B000000000000000000000000350000006662782F39464131463745442D413632322D343644302D413938332D3331
310
353338454246344243312F76657274696365732E62696E504B0304140006080800CC70623BF270F1330600000004000000360000006662782F39464131463745442D413632322D343644302D413938332D3331353338454246344243312F747269616E676C65732E62696E636660600000504B0304140006080000CC70623B
310
000000000000000000000000370000006662782F39464131463745442D413632322D343644302D413938332D3331353338454246344243312F617474726962757465732E62696E504B0304140006080800CC70623B08DA0BD19000000041010000360000006662782F39464131463745442D413632322D343644302D413938
310
332D3331353338454246344243312F6469726563746F72792E786D6C858F410AC3201045AF22B36F53E9A60B35CBEEBAE80D244E44489C6234F4F835464A48035D0DF398FF9F8AF63D0E6CC63039F212F8F9020C7D47C6792B21C5FE7403D62A1188E2E60C98D7234A5830286103A55745067B9D86B8A3CF9C7F90C11DE607
310
FB144396D7B6A82D282E9A152AD114D5EF2CB866EEE831B8EEA07A7BB5A8D7D61A2BAAEB7FD5F70921FF497D00504B0304140006080800CC70623B0D6EF93BFE000000A00100003B0000006662782F39464131463745442D413632322D343644302D413938332D3331353338454246344243312F7265736F75726365732F63
310
6F72652E786D6C8D50596E833010BD0A9ADFCA60B334011947A8694ED00B586642AC041B79A97AFC9A40A5F6AF3F33A3B7689E1E3F7DCD8FEC139DD7D6F4C0720A191A65476DA61E62B892236427C19DB5E1970C322367EC618541F0C9D9B8EC90B226A009093576C41D94DE63804C3DD2D18357379C652E63480A7FCF17A9
310
EE72C29CE5894E3AC17D702940B63D59270887DE46A7D0F36263058F518FBB468FE9A7BE6A7420864373B8D4873369AA8691FA421B3294352543C5CAF65C0F6FEF43CB8BD52C78D0F34F46E550061C419494B6843142CB0F5677F4B52BEB177AEC28E5C52AFF638ACBF84F53D42654E51E77B379102C05791282176B5F693D
310
CB4C7BED567C03504B010214000A0000080000CC70623B3DEE336E79000000790000001B00000000000000000000000000000000006175746F6465736B2D64657369676E2D7061636B6167652E786D6C504B01021400140006080800CC70623BD486FD9CA0000000F40000001300000000000000000000000000B20000005B
310
436F6E74656E745F54797065735D2E786D6C504B01021400140006080800CC70623B1EC5D7A3EB0000007C010000080000000000000000000000000083010000636F72652E786D6C504B01021400140006080800CC70623B55019EA25F0000007C000000070000000000000000000000000094020000636E782E786D6C504B
310
01021400140006080800CC70623B8C9102E971010000D40300000C00000000000000000000000000180300006662782F636F72652E786D6C504B01021400140006080800CC70623BFFEA85907E0000009D0000000B00000000000000000000000000B30400006662782F636E782E786D6C504B01021400140006080800CC70
310
623B4FEEA4082C0100001202000031000000000000000000000000005A0500006662782F39464131463745442D413632322D343644302D413938332D3331353338454246344243312F636F72652E786D6C504B01021400140006080800CC70623BAD7543B64E010000330300003000000000000000000000000000D5060000
310
6662782F39464131463745442D413632322D343644302D413938332D3331353338454246344243312F636E782E786D6C504B01021400140006080800CC70623B16AB87BA640500003C1000003400000000000000000000000000710800006662782F39464131463745442D413632322D343644302D413938332D3331353338
310
454246344243312F6F626A656374732E786D6C504B01021400140006080000CC70623B0000000000000000000000003500000000000000000000000000270E00006662782F39464131463745442D413632322D343644302D413938332D3331353338454246344243312F76657274696365732E62696E504B01021400140006
310
080800CC70623BF270F133060000000400000036000000000000000000000000007A0E00006662782F39464131463745442D413632322D343644302D413938332D3331353338454246344243312F747269616E676C65732E62696E504B01021400140006080000CC70623B0000000000000000000000003700000000000000
310
000000000000D40E00006662782F39464131463745442D413632322D343644302D413938332D3331353338454246344243312F617474726962757465732E62696E504B01021400140006080800CC70623B08DA0BD190000000410100003600000000000000000000000000290F00006662782F39464131463745442D413632
310
322D343644302D413938332D3331353338454246344243312F6469726563746F72792E786D6C504B01021400140006080800CC70623B0D6EF93BFE000000A00100003B000000000000000000000000000D1000006662782F39464131463745442D413632322D343644302D413938332D3331353338454246344243312F7265
310
736F75726365732F636F72652E786D6C504B0506000000000E000E0080040000641100000000
  0
XRECORD
  5
33B
102
{ACAD_REACTORS
330
173
102
}
330
173
100
AcDbXrecord
280
     1
102
MATERIAL
148
0.0
149
0.0
149
0.0
 93
        0
 94
      127
282
     0
 72
     1
 77
     1
171
     1
175
     1
179
     1
273
     0
  0
XRECORD
  5
175
102
{ACAD_REACTORS
330
173
102
}
330
173
100
AcDbXrecord
280
     1
270
     1
271
     1
  0
XRECORD
  5
174
102
{ACAD_REACTORS
330
173
102
}
330
173
100
AcDbXrecord
280
     1
270
     1
271
     1
  0
XRECORD
  5
1FB
102
{ACAD_REACTORS
330
173
102
}
330
173
100
AcDbXrecord
280
     1
 70
     0
 90
1673772943
  1
ECE7A1D2-D628-4531-984C-D00F80459256
310
504B03040A0000080000CC70623B3DEE336E79000000790000001B0000006175746F6465736B2D64657369676E2D7061636B6167652E786D6C3C3F786D6C2076657273696F6E3D22312E302220656E636F64696E673D227574662D3822203F3E3C666F726D6174733E3C666F726D61743E687474703A2F2F736368656D612E
310
6175746F6465736B2E636F6D2F64657369676E2D7061636B6167652F323030393C2F666F726D61743E3C2F666F726D6174733E504B0304140006080800CC70623BD486FD9CA0000000F4000000130000005B436F6E74656E745F54797065735D2E786D6C7D8EC10E82300C865F65E91D8A1E8C310C0EEA1BF002731658846E
310
D98AC1B77784ABF1D8FE5FBFBF75BBCE937A534CCEB38643598122B6FEE978D0B0485F9C41B54DDD7D022595594E1A469170414C76A4D9A4D207E29CF43ECE46F218070CC6BECC4078ACAA135ACF422C856C0E68EA1BF5669944DDD7BCDE7B1F8E415D77AECB980613C2E4AC91FC167A2B244592486606FC29C8FD7F045B9A
310
EF7053A7E60B504B0304140006080800CC70623BD9DDAED0EC0000007C01000008000000636F72652E786D6C8D90416EC3201045AF82665B61836D9CD8C2444DD39CA01740405C94182C03558F5F9C3852BBEB6A467FFE9B197D7EF89E6EE8CB2CC17A37002D0820E394D7D68D03A478C17B4007C117EFE32F1B20272733C0
310
2A83E0E3E2D3BC49CABB685CCCAAF3DA6CA20CC14440EA969B0182FA34932C648AD911AEC52CD5558EA6A0CF2EC329598D1E47ACCEFBECC59A050463A7EA5833865FEBDD0E37353BE3EE8DBDE3F6786A48D375FBF6CC78B9C282473B3DEFABC5C86834888A900E538A49F5419B9EB47DD5BC907D4F082F57FB1F28CDFA9F50
310
B22ED6D5F6EE030B20687EE43E10BC5CB3C8E51E54AE6B6EE207504B0304140006080800CC70623B55019EA25F0000007C00000007000000636E782E786D6C4DCB3B0E80201045D1AD90E915ED2CF8AC45050C11660C8261F98AB1B07AC9C97D42D718D865D3E909258CFD00CCE24AC6E326A164D74DC0B4128928FF326038
310
472BA13128B1252AC747C6BAB984FC68F0B87FE8960A5C09FE86CFB69FBA01504B0304140006080800CC70623BA24EB22D72010000D40300000C0000006662782F636F72652E786D6CC5535B6E833010BC8AE5DF0A6C5E49888CA3A6694ED00B38E05014B091B1518EDFE511A5A9D228FD2A1F60CDEC7A67C6986DCE4D8D7A
310
69BA4AAB0C073EC548AA5C17952A33ECECD15B61B4E1CC686DBF9561A44423333CC098B3D268D7CE50AE9595CA02AA74216750749DB418E5352C32DCE59FB211BE70162ABA93DF8AFC244AE9073ED050C759670D0840D390E18DF9F1706664C23973AE2A66B62A605A75ACA4C13C4976E1364A12EF355A2EBD384AF65EFA96
310
BC7B8BED2EA6719AAE16FB8491A199335B351775B991C2CA02F390D2D40B028F861F41BCA68B7518BFD0D59A524686F29B26D7164F36B94AD9289CE54E6D1DE6010819891F6E21228B3AD1831EC219194284CF98F06DD01008846CC5A1BEF83801D4CBDC6A1303536877A57A513B0953A94FC707FDBE6064EA84A9E3E6E0FA
310
EE8CF0E9198F7784A316AA0413C2C2F2E0ECA0934D1AE6D05A69BCDE9E91D2A611F573361E38FC1375157F5752AE6B6DFE4B11990F88CCBF0719EE23FF02504B0304140006080800CC70623B408A7D3B7C0000009D0000000B0000006662782F636E782E786D6C4DCCD10A83201886E15B91FFDC552A92A0064DBC8F581632
310
D3703A76F9ABD1C18E3E78F878E5F0D9027ABBFCF2292AE86E2D20171F69F6715550CB827B40839639A5F2770314A7CD293819B45C73AAFB45B35BA61ACAA1C1C7E7855C58C15BC331339661262CC762340413D68D77DA5B42298546CBE6573AF60CEB2F504B0304140006080800CC70623B449FB9BD290100001202000031
310
0000006662782F36394639363044362D344446342D343946362D394244322D3234314243333846323333332F636F72652E786D6C8D515B6EC32010BC0AE22B55850D98B871848994463E412FE002495162B07854397EA176A4F62F3F2C9A9D991D587EB84F37F0AD7D30CEF6905418026DA553C65E7A98E219ED203808EE9D
310
8B7F6810D871D23D2C3014FCE25D9A57483A1BB58D19B54EE9151C43D0110279CB971E06F9A5A7B11A53CC8C70ADE6515EC78BAE4895DB992778883E0700CB907242D17643D7E2538BD869608875438BBAE38922CAC8F1BDD90DB4691A5E2F42C153326A951B95E398B3D1FE599322163C9AE9115F7A3D46ADA0A018778810
310
84E907617BDCEE297BC5BB3DC6BC2EF47FA234AB2745C9D8D8D035EE220B50105E2F0DC1954B9FB747187D9F9D8FA0CCDB042D5FA0C015C65B42DF78BD10F3F3B363CB56C7109DCFDFBBB97E662ED92EB62D13BC2E1BCAE5777DB9966D8A1F504B0304140006080800CC70623BAD7543B64E01000033030000300000006662
310
782F36394639363044362D344446342D343946362D394244322D3234314243333846323333332F636E782E786D6CD593CD6EC32010845F0571AD6CE3D48AD20813A9873E410FBD12D82434182C7EAAE6EDBB2424CD25871E7B41D6EC30B3FA84F9E67BB2E40B4234DE8DB46F1925E094D7C6ED479AD3AE5951B2113C789FEE
310
6C943839C1488B4C05DF079FE72A69D8C96C13AAD6B8631503449F83828872B949AC57D26200B826A308D316B4064D6E46FCDA41C05550DC9E483A00797BFD207EFB092A45DE9514C1BBD22178396BD39D891265658C238DEA00936C654E5E433CB65A26D9F6EDB5EBC14EBF49A45CB856E66048291F6939A9A81BB5C89177
310
38143CA680F4AA299D66A042CEB3354A2684DC9D8D178FE0D9B8B41CAAD720F880EE7EF93C0C18769E099ECC04D5A102C8049A8A05632F4DDF376CF1DE0F6BB65C2F8627B65A33C6BB62177CEBBDAD973006829F89F22E814B54F4BC2BE347F8AA8F681390B50FA73F804400B5F542E796F19FF974E7F78DB802FE05E20750
310
4B0304140006080800CC70623B8D05915C650500003B100000340000006662782F36394639363044362D344446342D343946362D394244322D3234314243333846323333332F6F626A656374732E786D6CAD575B6FA33814FE2B887D06429276DA1565D4266D158D3A339A6846FB502932E050B66023DB74D2FDF5FB190C01
310
9276B2973C046C8ECFF53B17071F77456EBD502133CEAE6CDF9DD81665314F32965ED995DA3A17B6F5310C04E7AA47665B8C14F4CAD6DB7618A48257A5D94AE89654B91AEDDEDDFC61C998326A5B714EA4BCB265FC440BE2924AF184CA6737218AB8E976E7FA6E4338649B0A523E8D98964450A6A029F619B8588D52FE7039
310
B1BD30F0F4F730D0FF866AF6369557DB33949F31A9088B0F848DD8CCFCF9F2767A76E99CCDE733677E3EF59D9BBB9BA5E37F984D16E78BC5E5F5ED25044B25C0C96822E8D60EEFE11B91C581D77CEA34368A1F5329E68CD1B8B61F16D63A1B8E092D294B10C78C4A48EB593D192E7DED9BDEE7995E1B91FDEDD3ACEA9FE831
310
6A756F9F7D4D79F4274C90A7A04248AA51D5F8C718DAE06FB2F75AC4796EBE65D22A88A22223B995679120E2D50E41AA49C260C046A35368846B0BECD0DFF3EBEB8AD4F835768F69B9ADF25C43D30E6B646F807FAA64AD59F61715C7A54127C4AACA98BA3006A9D792DAE165E0D59B61A01FB3A9F9D838D2DAE62445C86166
310
F37564E842E7DE6A69879FEEA2DD5AE7E371E1A5E025154AC307D06A03D73EB5978C58FFA4C8E9033066E0F3BD53BEC1F39F91BE7B55103791EDE6BBB991A2046172CB4581D8B893FA674DDA17A77B3B7C413D1B511FD2743BFF8A38F03A658705E3ADF8015C3A3417FF3D7E439FF591DA0B5F18BC20C1B8981957AE6392A3
310
F43C640C01D1A0B4728E2DD4F26DB4B3C3152A252A3B4E913CEC1C72F012782FF88EFF8637AA552DBEF76408E8A8DE9E50F9E1CB3A2DA0DB1B6039A893B56063DC5B3E3FFB5F72E67AB9FEB4AEC496C4F4C1149625DD662C53E89D7BF0F6151A046260D1337DFDC94502430F83B0EE07A130A224BCAD7DAE1D9FB6CD422FF6
310
920702629C4BB9AE79C12F243C6432A6794E18E5552BA56B431AAB5D91317302B2B071E86C3A42B1A02F999E24061403B5D0EB639195DA655DD3EBEAB4FB862DDF579F014AD0E73C22F99E28DA57FB98E75C6CA2D74D53086D600F4786E0FE3144B771A8A7B900F03594DB8A633CBC49B2EDB69228BB479CF863B5E807AAAB
310
23872F6DFEB4129B949CA33823F58830E86D65621E10047D9DB34D862E8EAC3C2ABC2F7B2C40D67CDFE01F5545B92105AF983AC54D93D69E56FB8E797F88913F898A9FEC705D3F9D1B54EC8426FB500D40A03BD0119B06E1B95DDC7EB8F6975367793EBD70E66733DFB9BC982F9CE564727731999F5D4ECFCE3B8D6A4DC2A0
310
6D50FD148437D110834A64C6CDDF57FBACB5C307A2A477DFE4939736CFEF2B175371E0E10CF0DD1D5C15654E0BCA14D1E87DD02FF93782A162C0A3D95F1524A52770F972BF1EE9809D13CE7DD599467F8ECE9ADD85CE85A34CD45355448C64F9E8A031DC2D596ACC6E5DD93D9B82DE2EF5CAF81363A8E47996A0DE24564A79
310
4115AACE09C55E14540231FDA13C319787134EBF34E3A022514E5B4D9E0826E25C02D5805B15ABE1BEF51B26383D445DD9E875EE33FE4C22DA16427D65A3BCA92CA6D28DD01DF5DC53330704308475351050232CCD31583787BA75774AFB06E5070DD0C8EF484E19968C5D83BA5B90B244D31E54D55A372320FE4786B7EA58
310
44E135AA5467CB7EA333A61683CC6A8C3257034C10CF46F40EF9F5BE59BE5BD30C3C72D235E95D10345C1D45445A5F0BB47E46A5EBE5570F9380B5FA629579952296A773720405982B9DE04011506178964401AA8BDF1FBF0A8EAB6861DD6580C0E38217056766716DAEB2D6FA0917D3E4116581EADB879C4E7CFFB11EFACD
310
3D641311495D92C8676CB409A72D18610D803CE8A626049E8EC1887CB5B44CC39883690DDA8399B4B9855B481E7D71D4A9D22F96E5BB73BF5793020C02137BF837504B0304140006080000CC70623B000000000000000000000000350000006662782F36394639363044362D344446342D343946362D394244322D32343142
310
43333846323333332F76657274696365732E62696E504B0304140006080800CC70623BF270F1330600000004000000360000006662782F36394639363044362D344446342D343946362D394244322D3234314243333846323333332F747269616E676C65732E62696E636660600000504B0304140006080000CC70623B0000
310
00000000000000000000370000006662782F36394639363044362D344446342D343946362D394244322D3234314243333846323333332F617474726962757465732E62696E504B0304140006080800CC70623B08DA0BD19000000041010000360000006662782F36394639363044362D344446342D343946362D394244322D
310
3234314243333846323333332F6469726563746F72792E786D6C858F410AC3201045AF22B36F53E9A60B35CBEEBAE80D244E44489C6234F4F835464A48035D0DF398FF9F8AF63D0E6CC63039F212F8F9020C7D47C6792B21C5FE7403D62A1188E2E60C98D7234A5830286103A55745067B9D86B8A3CF9C7F90C11DE607FB14
310
4396D7B6A82D282E9A152AD114D5EF2CB866EEE831B8EEA07A7BB5A8D7D61A2BAAEB7FD5F70921FF497D00504B0304140006080800CC70623BCA768048FE000000A00100003B0000006662782F36394639363044362D344446342D343946362D394244322D3234314243333846323333332F7265736F75726365732F636F72
310
652E786D6C8D50596E833010BD0A9ADFCA60D600328E9AA639412F609909B1126CE4A5EAF16B0295DABFFECC8CDEA2797AECF8353F924FB44E193D409E5248504B332A3D0D10FC95B4901C39B3C6F85F3248B49871801506CE266BC2B243D2688FDA47549B11775038871E12F988C7004EDE7016A9083E2ADC3D5D84BC8B09
310
D33C8D74D471E6BC8D0192EDC93A815B742658898E651BCB59086ADC356A8C3FD555A1055ED7E7E254D615792D0F075295F585746FF53B694EE78A565DD736979A65AB9933AFE69F8CD2A2F038022F28ED489E135A7CE4554F9BBEA85E68DB53CAB255FEC71496F19FA6A0B42F8B3DEE6673C0F318E4497096AD7DC5F52C33
310
EEB55BFE0D504B010214000A0000080000CC70623B3DEE336E79000000790000001B00000000000000000000000000000000006175746F6465736B2D64657369676E2D7061636B6167652E786D6C504B01021400140006080800CC70623BD486FD9CA0000000F40000001300000000000000000000000000B20000005B436F
310
6E74656E745F54797065735D2E786D6C504B01021400140006080800CC70623BD9DDAED0EC0000007C010000080000000000000000000000000083010000636F72652E786D6C504B01021400140006080800CC70623B55019EA25F0000007C000000070000000000000000000000000095020000636E782E786D6C504B0102
310
1400140006080800CC70623BA24EB22D72010000D40300000C00000000000000000000000000190300006662782F636F72652E786D6C504B01021400140006080800CC70623B408A7D3B7C0000009D0000000B00000000000000000000000000B50400006662782F636E782E786D6C504B01021400140006080800CC70623B
310
449FB9BD290100001202000031000000000000000000000000005A0500006662782F36394639363044362D344446342D343946362D394244322D3234314243333846323333332F636F72652E786D6C504B01021400140006080800CC70623BAD7543B64E010000330300003000000000000000000000000000D20600006662
310
782F36394639363044362D344446342D343946362D394244322D3234314243333846323333332F636E782E786D6C504B01021400140006080800CC70623B8D05915C650500003B10000034000000000000000000000000006E0800006662782F36394639363044362D344446342D343946362D394244322D32343142433338
310
46323333332F6F626A656374732E786D6C504B01021400140006080000CC70623B0000000000000000000000003500000000000000000000000000250E00006662782F36394639363044362D344446342D343946362D394244322D3234314243333846323333332F76657274696365732E62696E504B010214001400060808
310
00CC70623BF270F13306000000040000003600000000000000000000000000780E00006662782F36394639363044362D344446342D343946362D394244322D3234314243333846323333332F747269616E676C65732E62696E504B01021400140006080000CC70623B00000000000000000000000037000000000000000000
310
00000000D20E00006662782F36394639363044362D344446342D343946362D394244322D3234314243333846323333332F617474726962757465732E62696E504B01021400140006080800CC70623B08DA0BD190000000410100003600000000000000000000000000270F00006662782F36394639363044362D344446342D
310
343946362D394244322D3234314243333846323333332F6469726563746F72792E786D6C504B01021400140006080800CC70623BCA768048FE000000A00100003B000000000000000000000000000B1000006662782F36394639363044362D344446342D343946362D394244322D3234314243333846323333332F7265736F
310
75726365732F636F72652E786D6C504B0506000000000E000E0080040000621100000000
  0
XRECORD
  5
176
102
{ACAD_REACTORS
330
173
102
}
330
173
100
AcDbXrecord
280
     1
270
     1
271
     1
  0
XRECORD
  5
177
102
{ACAD_REACTORS
330
173
102
}
330
173
100
AcDbXrecord
280
     1
270
     1
271
     1
  0
CELLSTYLEMAP
  5
793
102
{ACAD_REACTORS
330
162
102
}
330
162
100
AcDbCellStyleMap
 90
        3
300
CELLSTYLE
  1
TABLEFORMAT_BEGIN
 90
        5
170
     1
 91
        0
 92
    32768
 62
   257
 93
        1
300
CONTENTFORMAT
  1
CONTENTFORMAT_BEGIN
 90
        0
 91
        0
 92
      512
 93
        0
300

 40
0.0
140
1.0
 94
        5
 62
     0
340
11
144
6.0
309
CONTENTFORMAT_END
171
     1
301
MARGIN
  1
CELLMARGIN_BEGIN
 40
1.5
 40
1.5
 40
1.5
 40
1.5
 40
0.18
 40
0.18
309
CELLMARGIN_END
 94
        6
 95
        1
302
GRIDFORMAT
  1
GRIDFORMAT_BEGIN
 90
        0
 91
        1
 62
     0
 92
       -2
340
14
 93
        0
 40
1.125
309
GRIDFORMAT_END
 95
        2
302
GRIDFORMAT
  1
GRIDFORMAT_BEGIN
 90
        0
 91
        1
 62
     0
 92
       -2
340
14
 93
        0
 40
1.125
309
GRIDFORMAT_END
 95
        4
302
GRIDFORMAT
  1
GRIDFORMAT_BEGIN
 90
        0
 91
        1
 62
     0
 92
       -2
340
14
 93
        0
 40
1.125
309
GRIDFORMAT_END
 95
        8
302
GRIDFORMAT
  1
GRIDFORMAT_BEGIN
 90
        0
 91
        1
 62
     0
 92
       -2
340
14
 93
        0
 40
1.125
309
GRIDFORMAT_END
 95
       16
302
GRIDFORMAT
  1
GRIDFORMAT_BEGIN
 90
        0
 91
        1
 62
     0
 92
       -2
340
14
 93
        0
 40
1.125
309
GRIDFORMAT_END
 95
       32
302
GRIDFORMAT
  1
GRIDFORMAT_BEGIN
 90
        0
 91
        1
 62
     0
 92
       -2
340
14
 93
        0
 40
1.125
309
GRIDFORMAT_END
309
TABLEFORMAT_END
  1
CELLSTYLE_BEGIN
 90
        1
 91
        1
300
_TITLE
309
CELLSTYLE_END
300
CELLSTYLE
  1
TABLEFORMAT_BEGIN
 90
        5
170
     1
 91
        0
 92
        0
 62
   257
 93
        1
300
CONTENTFORMAT
  1
CONTENTFORMAT_BEGIN
 90
        0
 91
        0
 92
      512
 93
        0
300

 40
0.0
140
1.0
 94
        5
 62
     0
340
11
144
4.5
309
CONTENTFORMAT_END
171
     1
301
MARGIN
  1
CELLMARGIN_BEGIN
 40
1.5
 40
1.5
 40
1.5
 40
1.5
 40
0.18
 40
0.18
309
CELLMARGIN_END
 94
        6
 95
        1
302
GRIDFORMAT
  1
GRIDFORMAT_BEGIN
 90
        0
 91
        1
 62
     0
 92
       -2
340
14
 93
        0
 40
1.125
309
GRIDFORMAT_END
 95
        2
302
GRIDFORMAT
  1
GRIDFORMAT_BEGIN
 90
        0
 91
        1
 62
     0
 92
       -2
340
14
 93
        0
 40
1.125
309
GRIDFORMAT_END
 95
        4
302
GRIDFORMAT
  1
GRIDFORMAT_BEGIN
 90
        0
 91
        1
 62
     0
 92
       -2
340
14
 93
        0
 40
1.125
309
GRIDFORMAT_END
 95
        8
302
GRIDFORMAT
  1
GRIDFORMAT_BEGIN
 90
        0
 91
        1
 62
     0
 92
       -2
340
14
 93
        0
 40
1.125
309
GRIDFORMAT_END
 95
       16
302
GRIDFORMAT
  1
GRIDFORMAT_BEGIN
 90
        0
 91
        1
 62
     0
 92
       -2
340
14
 93
        0
 40
1.125
309
GRIDFORMAT_END
 95
       32
302
GRIDFORMAT
  1
GRIDFORMAT_BEGIN
 90
        0
 91
        1
 62
     0
 92
       -2
340
14
 93
        0
 40
1.125
309
GRIDFORMAT_END
309
TABLEFORMAT_END
  1
CELLSTYLE_BEGIN
 90
        2
 91
        1
300
_HEADER
309
CELLSTYLE_END
300
CELLSTYLE
  1
TABLEFORMAT_BEGIN
 90
        5
170
     1
 91
        0
 92
        0
 62
   257
 93
        1
300
CONTENTFORMAT
  1
CONTENTFORMAT_BEGIN
 90
        0
 91
        0
 92
      512
 93
        0
300

 40
0.0
140
1.0
 94
        2
 62
     0
340
11
144
4.5
309
CONTENTFORMAT_END
171
     1
301
MARGIN
  1
CELLMARGIN_BEGIN
 40
1.5
 40
1.5
 40
1.5
 40
1.5
 40
0.18
 40
0.18
309
CELLMARGIN_END
 94
        6
 95
        1
302
GRIDFORMAT
  1
GRIDFORMAT_BEGIN
 90
        0
 91
        1
 62
     0
 92
       -2
340
14
 93
        0
 40
1.125
309
GRIDFORMAT_END
 95
        2
302
GRIDFORMAT
  1
GRIDFORMAT_BEGIN
 90
        0
 91
        1
 62
     0
 92
       -2
340
14
 93
        0
 40
1.125
309
GRIDFORMAT_END
 95
        4
302
GRIDFORMAT
  1
GRIDFORMAT_BEGIN
 90
        0
 91
        1
 62
     0
 92
       -2
340
14
 93
        0
 40
1.125
309
GRIDFORMAT_END
 95
        8
302
GRIDFORMAT
  1
GRIDFORMAT_BEGIN
 90
        0
 91
        1
 62
     0
 92
       -2
340
14
 93
        0
 40
1.125
309
GRIDFORMAT_END
 95
       16
302
GRIDFORMAT
  1
GRIDFORMAT_BEGIN
 90
        0
 91
        1
 62
     0
 92
       -2
340
14
 93
        0
 40
1.125
309
GRIDFORMAT_END
 95
       32
302
GRIDFORMAT
  1
GRIDFORMAT_BEGIN
 90
        0
 91
        1
 62
     0
 92
       -2
340
14
 93
        0
 40
1.125
309
GRIDFORMAT_END
309
TABLEFORMAT_END
  1
CELLSTYLE_BEGIN
 90
        3
 91
        2
300
_DATA
309
CELLSTYLE_END
  0
XRECORD
  5
798
102
{ACAD_REACTORS
330
162
102
}
330
162
100
AcDbXrecord
280
     1
102
ACAD_ROUNDTRIP_PRE2007_TABLESTYLE
 90
      512
 91
        0
  1

 92
      512
 93
        0
  2

 94
      512
 95
        0
  3

  0
XRECORD
  5
7A8
102
{ACAD_REACTORS
330
7A7
102
}
330
7A7
100
AcDbXrecord
280
     1
102
RTVSPost2010Prop28
280
     1
102
RTVSPost2010PropOp28
 70
     1
102
RTVSPost2010Prop29
280
     1
102
RTVSPost2010PropOp29
 70
     1
102
RTVSPost2010Prop30
280
     0
102
RTVSPost2010PropOp30
 70
     1
102
RTVSPost2010Prop31
280
     0
102
RTVSPost2010PropOp31
 70
     1
102
RTVSPost2010Prop32
280
     0
102
RTVSPost2010PropOp32
 70
     1
102
RTVSPost2010Prop33
280
     0
102
RTVSPost2010PropOp33
 70
     1
102
RTVSPost2010Prop34
280
     0
102
RTVSPost2010PropOp34
 70
     1
102
RTVSPost2010Prop35
280
     0
102
RTVSPost2010PropOp35
 70
     1
102
RTVSPost2010Prop36
280
     0
102
RTVSPost2010PropOp36
 70
     1
102
RTVSPost2010Prop37
 90
       50
102
RTVSPost2010PropOp37
 70
     1
102
RTVSPost2010Prop38
140
0.0
102
RTVSPost2010PropOp38
 70
     1
102
RTVSPost2010Prop39
140
1.0
102
RTVSPost2010PropOp39
 70
     1
102
RTVSPost2010Prop40
 90
        0
102
RTVSPost2010PropOp40
 70
     1
102
RTVSPost2010Prop41ColorIndex
 90
       18
102
RTVSPost2010Prop41ColorRGB
 90
        0
102
RTVSPost2010PropOp41
 70
     1
102
RTVSPost2010Prop42
 90
       50
102
RTVSPost2010PropOp42
 70
     1
102
RTVSPost2010Prop43
 90
        3
102
RTVSPost2010PropOp43
 70
     1
102
RTVSPost2010Prop44ColorIndex
 90
        5
102
RTVSPost2010Prop44ColorRGB
 90
      255
102
RTVSPost2010PropOp44
 70
     1
102
RTVSPost2010Prop45
280
     0
102
RTVSPost2010PropOp45
 70
     1
102
RTVSPost2010Prop46
 90
       50
102
RTVSPost2010PropOp46
 70
     1
102
RTVSPost2010Prop47
 90
       50
102
RTVSPost2010PropOp47
 70
     1
102
RTVSPost2010Prop48
 90
       50
102
RTVSPost2010PropOp48
 70
     1
102
RTVSPost2010Prop49
280
     0
102
RTVSPost2010PropOp49
 70
     1
102
RTVSPost2010Prop50
 90
       50
102
RTVSPost2010PropOp50
 70
     1
102
RTVSPost2010Prop51ColorIndex
 90
      256
102
RTVSPost2010Prop51ColorRGB
 90
-16777216
102
RTVSPost2010PropOp51
 70
     0
102
RTVSPost2010Prop52
140
1.0
102
RTVSPost2010PropOp52
 70
     0
102
RTVSPost2010Prop53
 90
        2
102
RTVSPost2010PropOp53
 70
     1
102
RTVSPost2010Prop54
  1
strokes_ogs.tif
102
RTVSPost2010PropOp54
 70
     1
102
RTVSPost2010Prop55
280
     0
102
RTVSPost2010PropOp55
 70
     1
102
RTVSPost2010Prop56
140
1.0
102
RTVSPost2010PropOp56
 70
     1
102
RTVSPost2010Prop57
140
1.0
102
RTVSPost2010PropOp57
 70
     1
102
RTVSPropertyOp0
 70
     1
102
RTVSPropertyOp1
 70
     1
102
RTVSPropertyOp2
 70
     1
102
RTVSPropertyOp3
 70
     1
102
RTVSPropertyOp4
 70
     1
102
RTVSPropertyOp5
 70
     1
102
RTVSPropertyOp6
 70
     1
102
RTVSPropertyOp7
 70
     1
102
RTVSPropertyOp8
 70
     1
102
RTVSPropertyOp9
 70
     1
102
RTVSPropertyOp10
 70
     1
102
RTVSPropertyOp11
 70
     1
102
RTVSPropertyOp12
 70
     1
102
RTVSPropertyOp13
 70
     1
102
RTVSPropertyOp14
 70
     1
102
RTVSPropertyOp15
 70
     1
102
RTVSPropertyOp16
 70
     1
102
RTVSPropertyOp17
 70
     1
102
RTVSPropertyOp18
 70
     1
102
RTVSPropertyOp19
 70
     1
102
RTVSPropertyOp20
 70
     1
102
RTVSPropertyOp21
 70
     1
102
RTVSPropertyOp22
 70
     1
102
RTVSPropertyOp23
 70
     1
102
RTVSPropertyOp24
 70
     1
102
RTVSPropertyOp25
 70
     1
102
RTVSPropertyOp26
 70
     1
102
RTVSPropertyOp27
 70
     1
102
RTVSPropertyOp28
 70
     1
102
RTVSPropertyOp29
 70
     1
102
RTVSPropertyOp30
 70
     1
102
RTVSPropertyOp31
 70
     1
102
RTVSPropertyOp32
 70
     1
102
RTVSPropertyOp33
 70
     1
102
RTVSPropertyOp34
 70
     1
102
RTVSPropertyOp35
 70
     1
102
RTVSPropertyOp36
 70
     1
102
RTVSPropertyOp37
 70
     1
102
RTVSPropertyOp38
 70
     1
102
RTVSPropertyOp39
 70
     1
102
RTVSPropertyOp40
 70
     1
102
RTVSPropertyOp41
 70
     1
102
RTVSPropertyOp42
 70
     1
102
RTVSPropertyOp43
 70
     1
102
RTVSPropertyOp44
 70
     1
102
RTVSPropertyOp45
 70
     1
102
RTVSPropertyOp46
 70
     1
102
RTVSPropertyOp47
 70
     1
102
RTVSPropertyOp48
 70
     1
102
RTVSPropertyOp49
 70
     1
102
RTVSPropertyOp50
 70
     1
102
RTVSPropertyOp51
 70
     0
102
RTVSPropertyOp52
 70
     0
102
RTVSPropertyOp53
 70
     1
102
RTVSPropertyOp54
 70
     1
102
RTVSPropertyOp55
 70
     1
102
RTVSPropertyOp56
 70
     1
102
RTVSPropertyOp57
 70
     1
102
RTVSPropertyOp58
 70
     1
102
RTVSPropertyOp59
 70
     1
102
RTVSPropertyOp60
 70
     1
102
RTVSPropertyOp61
 70
     1
102
RTVSPropertyOp62
 70
     1
  0
XRECORD
  5
7A6
102
{ACAD_REACTORS
330
7A5
102
}
330
7A5
100
AcDbXrecord
280
     1
102
RTVSPost2010Prop28
280
     0
102
RTVSPost2010PropOp28
 70
     1
102
RTVSPost2010Prop29
280
     1
102
RTVSPost2010PropOp29
 70
     1
102
RTVSPost2010Prop30
280
     1
102
RTVSPost2010PropOp30
 70
     1
102
RTVSPost2010Prop31
280
     0
102
RTVSPost2010PropOp31
 70
     1
102
RTVSPost2010Prop32
280
     0
102
RTVSPost2010PropOp32
 70
     1
102
RTVSPost2010Prop33
280
     0
102
RTVSPost2010PropOp33
 70
     1
102
RTVSPost2010Prop34
280
     0
102
RTVSPost2010PropOp34
 70
     1
102
RTVSPost2010Prop35
280
     0
102
RTVSPost2010PropOp35
 70
     1
102
RTVSPost2010Prop36
280
     0
102
RTVSPost2010PropOp36
 70
     1
102
RTVSPost2010Prop37
 90
       50
102
RTVSPost2010PropOp37
 70
     1
102
RTVSPost2010Prop38
140
0.0
102
RTVSPost2010PropOp38
 70
     1
102
RTVSPost2010Prop39
140
1.0
102
RTVSPost2010PropOp39
 70
     1
102
RTVSPost2010Prop40
 90
        0
102
RTVSPost2010PropOp40
 70
     1
102
RTVSPost2010Prop41ColorIndex
 90
       18
102
RTVSPost2010Prop41ColorRGB
 90
        0
102
RTVSPost2010PropOp41
 70
     1
102
RTVSPost2010Prop42
 90
       50
102
RTVSPost2010PropOp42
 70
     1
102
RTVSPost2010Prop43
 90
        3
102
RTVSPost2010PropOp43
 70
     1
102
RTVSPost2010Prop44ColorIndex
 90
        5
102
RTVSPost2010Prop44ColorRGB
 90
      255
102
RTVSPost2010PropOp44
 70
     1
102
RTVSPost2010Prop45
280
     0
102
RTVSPost2010PropOp45
 70
     1
102
RTVSPost2010Prop46
 90
       50
102
RTVSPost2010PropOp46
 70
     1
102
RTVSPost2010Prop47
 90
       50
102
RTVSPost2010PropOp47
 70
     1
102
RTVSPost2010Prop48
 90
       50
102
RTVSPost2010PropOp48
 70
     1
102
RTVSPost2010Prop49
280
     0
102
RTVSPost2010PropOp49
 70
     1
102
RTVSPost2010Prop50
 90
       50
102
RTVSPost2010PropOp50
 70
     1
102
RTVSPost2010Prop51ColorIndex
 90
      256
102
RTVSPost2010Prop51ColorRGB
 90
-16777216
102
RTVSPost2010PropOp51
 70
     0
102
RTVSPost2010Prop52
140
1.0
102
RTVSPost2010PropOp52
 70
     0
102
RTVSPost2010Prop53
 90
        2
102
RTVSPost2010PropOp53
 70
     1
102
RTVSPost2010Prop54
  1
strokes_ogs.tif
102
RTVSPost2010PropOp54
 70
     1
102
RTVSPost2010Prop55
280
     0
102
RTVSPost2010PropOp55
 70
     1
102
RTVSPost2010Prop56
140
1.0
102
RTVSPost2010PropOp56
 70
     1
102
RTVSPost2010Prop57
140
1.0
102
RTVSPost2010PropOp57
 70
     1
102
RTVSPropertyOp0
 70
     1
102
RTVSPropertyOp1
 70
     1
102
RTVSPropertyOp2
 70
     1
102
RTVSPropertyOp3
 70
     1
102
RTVSPropertyOp4
 70
     1
102
RTVSPropertyOp5
 70
     1
102
RTVSPropertyOp6
 70
     1
102
RTVSPropertyOp7
 70
     1
102
RTVSPropertyOp8
 70
     1
102
RTVSPropertyOp9
 70
     1
102
RTVSPropertyOp10
 70
     1
102
RTVSPropertyOp11
 70
     1
102
RTVSPropertyOp12
 70
     1
102
RTVSPropertyOp13
 70
     1
102
RTVSPropertyOp14
 70
     1
102
RTVSPropertyOp15
 70
     1
102
RTVSPropertyOp16
 70
     1
102
RTVSPropertyOp17
 70
     1
102
RTVSPropertyOp18
 70
     1
102
RTVSPropertyOp19
 70
     1
102
RTVSPropertyOp20
 70
     1
102
RTVSPropertyOp21
 70
     1
102
RTVSPropertyOp22
 70
     1
102
RTVSPropertyOp23
 70
     1
102
RTVSPropertyOp24
 70
     1
102
RTVSPropertyOp25
 70
     1
102
RTVSPropertyOp26
 70
     1
102
RTVSPropertyOp27
 70
     1
102
RTVSPropertyOp28
 70
     1
102
RTVSPropertyOp29
 70
     1
102
RTVSPropertyOp30
 70
     1
102
RTVSPropertyOp31
 70
     1
102
RTVSPropertyOp32
 70
     1
102
RTVSPropertyOp33
 70
     1
102
RTVSPropertyOp34
 70
     1
102
RTVSPropertyOp35
 70
     1
102
RTVSPropertyOp36
 70
     1
102
RTVSPropertyOp37
 70
     1
102
RTVSPropertyOp38
 70
     1
102
RTVSPropertyOp39
 70
     1
102
RTVSPropertyOp40
 70
     1
102
RTVSPropertyOp41
 70
     1
102
RTVSPropertyOp42
 70
     1
102
RTVSPropertyOp43
 70
     1
102
RTVSPropertyOp44
 70
     1
102
RTVSPropertyOp45
 70
     1
102
RTVSPropertyOp46
 70
     1
102
RTVSPropertyOp47
 70
     1
102
RTVSPropertyOp48
 70
     1
102
RTVSPropertyOp49
 70
     1
102
RTVSPropertyOp50
 70
     1
102
RTVSPropertyOp51
 70
     0
102
RTVSPropertyOp52
 70
     0
102
RTVSPropertyOp53
 70
     1
102
RTVSPropertyOp54
 70
     1
102
RTVSPropertyOp55
 70
     1
102
RTVSPropertyOp56
 70
     1
102
RTVSPropertyOp57
 70
     1
102
RTVSPropertyOp58
 70
     1
102
RTVSPropertyOp59
 70
     1
102
RTVSPropertyOp60
 70
     1
102
RTVSPropertyOp61
 70
     1
102
RTVSPropertyOp62
 70
     1
  0
XRECORD
  5
7B4
102
{ACAD_REACTORS
330
7B3
102
}
330
7B3
100
AcDbXrecord
280
     1
102
RTVSPost2010Prop28
280
     0
102
RTVSPost2010PropOp28
 70
     1
102
RTVSPost2010Prop29
280
     1
102
RTVSPost2010PropOp29
 70
     1
102
RTVSPost2010Prop30
280
     1
102
RTVSPost2010PropOp30
 70
     1
102
RTVSPost2010Prop31
280
     0
102
RTVSPost2010PropOp31
 70
     1
102
RTVSPost2010Prop32
280
     0
102
RTVSPost2010PropOp32
 70
     1
102
RTVSPost2010Prop33
280
     0
102
RTVSPost2010PropOp33
 70
     1
102
RTVSPost2010Prop34
280
     0
102
RTVSPost2010PropOp34
 70
     1
102
RTVSPost2010Prop35
280
     0
102
RTVSPost2010PropOp35
 70
     1
102
RTVSPost2010Prop36
280
     0
102
RTVSPost2010PropOp36
 70
     1
102
RTVSPost2010Prop37
 90
       50
102
RTVSPost2010PropOp37
 70
     1
102
RTVSPost2010Prop38
140
0.0
102
RTVSPost2010PropOp38
 70
     1
102
RTVSPost2010Prop39
140
1.0
102
RTVSPost2010PropOp39
 70
     1
102
RTVSPost2010Prop40
 90
        0
102
RTVSPost2010PropOp40
 70
     1
102
RTVSPost2010Prop41ColorIndex
 90
       18
102
RTVSPost2010Prop41ColorRGB
 90
        0
102
RTVSPost2010PropOp41
 70
     1
102
RTVSPost2010Prop42
 90
       50
102
RTVSPost2010PropOp42
 70
     1
102
RTVSPost2010Prop43
 90
        3
102
RTVSPost2010PropOp43
 70
     1
102
RTVSPost2010Prop44ColorIndex
 90
        5
102
RTVSPost2010Prop44ColorRGB
 90
      255
102
RTVSPost2010PropOp44
 70
     1
102
RTVSPost2010Prop45
280
     0
102
RTVSPost2010PropOp45
 70
     1
102
RTVSPost2010Prop46
 90
       50
102
RTVSPost2010PropOp46
 70
     1
102
RTVSPost2010Prop47
 90
       50
102
RTVSPost2010PropOp47
 70
     1
102
RTVSPost2010Prop48
 90
       50
102
RTVSPost2010PropOp48
 70
     1
102
RTVSPost2010Prop49
280
     0
102
RTVSPost2010PropOp49
 70
     1
102
RTVSPost2010Prop50
 90
       50
102
RTVSPost2010PropOp50
 70
     1
102
RTVSPost2010Prop51ColorIndex
 90
      256
102
RTVSPost2010Prop51ColorRGB
 90
-16777216
102
RTVSPost2010PropOp51
 70
     0
102
RTVSPost2010Prop52
140
1.0
102
RTVSPost2010PropOp52
 70
     0
102
RTVSPost2010Prop53
 90
        2
102
RTVSPost2010PropOp53
 70
     1
102
RTVSPost2010Prop54
  1
strokes_ogs.tif
102
RTVSPost2010PropOp54
 70
     1
102
RTVSPost2010Prop55
280
     0
102
RTVSPost2010PropOp55
 70
     1
102
RTVSPost2010Prop56
140
1.0
102
RTVSPost2010PropOp56
 70
     1
102
RTVSPost2010Prop57
140
1.0
102
RTVSPost2010PropOp57
 70
     1
102
RTVSPropertyOp0
 70
     1
102
RTVSPropertyOp1
 70
     1
102
RTVSPropertyOp2
 70
     1
102
RTVSPropertyOp3
 70
     1
102
RTVSPropertyOp4
 70
     1
102
RTVSPropertyOp5
 70
     1
102
RTVSPropertyOp6
 70
     1
102
RTVSPropertyOp7
 70
     1
102
RTVSPropertyOp8
 70
     1
102
RTVSPropertyOp9
 70
     1
102
RTVSPropertyOp10
 70
     1
102
RTVSPropertyOp11
 70
     1
102
RTVSPropertyOp12
 70
     1
102
RTVSPropertyOp13
 70
     1
102
RTVSPropertyOp14
 70
     1
102
RTVSPropertyOp15
 70
     1
102
RTVSPropertyOp16
 70
     1
102
RTVSPropertyOp17
 70
     1
102
RTVSPropertyOp18
 70
     1
102
RTVSPropertyOp19
 70
     1
102
RTVSPropertyOp20
 70
     1
102
RTVSPropertyOp21
 70
     1
102
RTVSPropertyOp22
 70
     1
102
RTVSPropertyOp23
 70
     1
102
RTVSPropertyOp24
 70
     1
102
RTVSPropertyOp25
 70
     1
102
RTVSPropertyOp26
 70
     1
102
RTVSPropertyOp27
 70
     1
102
RTVSPropertyOp28
 70
     1
102
RTVSPropertyOp29
 70
     1
102
RTVSPropertyOp30
 70
     1
102
RTVSPropertyOp31
 70
     1
102
RTVSPropertyOp32
 70
     1
102
RTVSPropertyOp33
 70
     1
102
RTVSPropertyOp34
 70
     1
102
RTVSPropertyOp35
 70
     1
102
RTVSPropertyOp36
 70
     1
102
RTVSPropertyOp37
 70
     1
102
RTVSPropertyOp38
 70
     1
102
RTVSPropertyOp39
 70
     1
102
RTVSPropertyOp40
 70
     1
102
RTVSPropertyOp41
 70
     1
102
RTVSPropertyOp42
 70
     1
102
RTVSPropertyOp43
 70
     1
102
RTVSPropertyOp44
 70
     1
102
RTVSPropertyOp45
 70
     1
102
RTVSPropertyOp46
 70
     1
102
RTVSPropertyOp47
 70
     1
102
RTVSPropertyOp48
 70
     1
102
RTVSPropertyOp49
 70
     1
102
RTVSPropertyOp50
 70
     1
102
RTVSPropertyOp51
 70
     0
102
RTVSPropertyOp52
 70
     0
102
RTVSPropertyOp53
 70
     1
102
RTVSPropertyOp54
 70
     1
102
RTVSPropertyOp55
 70
     1
102
RTVSPropertyOp56
 70
     1
102
RTVSPropertyOp57
 70
     1
102
RTVSPropertyOp58
 70
     1
102
RTVSPropertyOp59
 70
     1
102
RTVSPropertyOp60
 70
     1
102
RTVSPropertyOp61
 70
     1
102
RTVSPropertyOp62
 70
     1
  0
XRECORD
  5
7BC
102
{ACAD_REACTORS
330
7BB
102
}
330
7BB
100
AcDbXrecord
280
     1
102
RTVSPost2010Prop28
280
     0
102
RTVSPost2010PropOp28
 70
     1
102
RTVSPost2010Prop29
280
     1
102
RTVSPost2010PropOp29
 70
     1
102
RTVSPost2010Prop30
280
     1
102
RTVSPost2010PropOp30
 70
     1
102
RTVSPost2010Prop31
280
     0
102
RTVSPost2010PropOp31
 70
     1
102
RTVSPost2010Prop32
280
     0
102
RTVSPost2010PropOp32
 70
     1
102
RTVSPost2010Prop33
280
     0
102
RTVSPost2010PropOp33
 70
     1
102
RTVSPost2010Prop34
280
     0
102
RTVSPost2010PropOp34
 70
     1
102
RTVSPost2010Prop35
280
     0
102
RTVSPost2010PropOp35
 70
     1
102
RTVSPost2010Prop36
280
     0
102
RTVSPost2010PropOp36
 70
     1
102
RTVSPost2010Prop37
 90
       50
102
RTVSPost2010PropOp37
 70
     1
102
RTVSPost2010Prop38
140
0.0
102
RTVSPost2010PropOp38
 70
     1
102
RTVSPost2010Prop39
140
1.0
102
RTVSPost2010PropOp39
 70
     1
102
RTVSPost2010Prop40
 90
        0
102
RTVSPost2010PropOp40
 70
     1
102
RTVSPost2010Prop41ColorIndex
 90
       18
102
RTVSPost2010Prop41ColorRGB
 90
        0
102
RTVSPost2010PropOp41
 70
     1
102
RTVSPost2010Prop42
 90
       50
102
RTVSPost2010PropOp42
 70
     1
102
RTVSPost2010Prop43
 90
        3
102
RTVSPost2010PropOp43
 70
     1
102
RTVSPost2010Prop44ColorIndex
 90
        5
102
RTVSPost2010Prop44ColorRGB
 90
      255
102
RTVSPost2010PropOp44
 70
     1
102
RTVSPost2010Prop45
280
     0
102
RTVSPost2010PropOp45
 70
     1
102
RTVSPost2010Prop46
 90
       50
102
RTVSPost2010PropOp46
 70
     1
102
RTVSPost2010Prop47
 90
       50
102
RTVSPost2010PropOp47
 70
     1
102
RTVSPost2010Prop48
 90
       50
102
RTVSPost2010PropOp48
 70
     1
102
RTVSPost2010Prop49
280
     0
102
RTVSPost2010PropOp49
 70
     1
102
RTVSPost2010Prop50
 90
       50
102
RTVSPost2010PropOp50
 70
     1
102
RTVSPost2010Prop51ColorIndex
 90
      256
102
RTVSPost2010Prop51ColorRGB
 90
-16777216
102
RTVSPost2010PropOp51
 70
     0
102
RTVSPost2010Prop52
140
1.0
102
RTVSPost2010PropOp52
 70
     0
102
RTVSPost2010Prop53
 90
        2
102
RTVSPost2010PropOp53
 70
     1
102
RTVSPost2010Prop54
  1
strokes_ogs.tif
102
RTVSPost2010PropOp54
 70
     1
102
RTVSPost2010Prop55
280
     0
102
RTVSPost2010PropOp55
 70
     1
102
RTVSPost2010Prop56
140
1.0
102
RTVSPost2010PropOp56
 70
     1
102
RTVSPost2010Prop57
140
1.0
102
RTVSPost2010PropOp57
 70
     1
102
RTVSPropertyOp0
 70
     1
102
RTVSPropertyOp1
 70
     1
102
RTVSPropertyOp2
 70
     1
102
RTVSPropertyOp3
 70
     1
102
RTVSPropertyOp4
 70
     1
102
RTVSPropertyOp5
 70
     1
102
RTVSPropertyOp6
 70
     1
102
RTVSPropertyOp7
 70
     1
102
RTVSPropertyOp8
 70
     1
102
RTVSPropertyOp9
 70
     1
102
RTVSPropertyOp10
 70
     1
102
RTVSPropertyOp11
 70
     1
102
RTVSPropertyOp12
 70
     1
102
RTVSPropertyOp13
 70
     1
102
RTVSPropertyOp14
 70
     1
102
RTVSPropertyOp15
 70
     1
102
RTVSPropertyOp16
 70
     1
102
RTVSPropertyOp17
 70
     1
102
RTVSPropertyOp18
 70
     1
102
RTVSPropertyOp19
 70
     1
102
RTVSPropertyOp20
 70
     1
102
RTVSPropertyOp21
 70
     1
102
RTVSPropertyOp22
 70
     1
102
RTVSPropertyOp23
 70
     1
102
RTVSPropertyOp24
 70
     1
102
RTVSPropertyOp25
 70
     1
102
RTVSPropertyOp26
 70
     1
102
RTVSPropertyOp27
 70
     1
102
RTVSPropertyOp28
 70
     1
102
RTVSPropertyOp29
 70
     1
102
RTVSPropertyOp30
 70
     1
102
RTVSPropertyOp31
 70
     1
102
RTVSPropertyOp32
 70
     1
102
RTVSPropertyOp33
 70
     1
102
RTVSPropertyOp34
 70
     1
102
RTVSPropertyOp35
 70
     1
102
RTVSPropertyOp36
 70
     1
102
RTVSPropertyOp37
 70
     1
102
RTVSPropertyOp38
 70
     1
102
RTVSPropertyOp39
 70
     1
102
RTVSPropertyOp40
 70
     1
102
RTVSPropertyOp41
 70
     1
102
RTVSPropertyOp42
 70
     1
102
RTVSPropertyOp43
 70
     1
102
RTVSPropertyOp44
 70
     1
102
RTVSPropertyOp45
 70
     1
102
RTVSPropertyOp46
 70
     1
102
RTVSPropertyOp47
 70
     1
102
RTVSPropertyOp48
 70
     1
102
RTVSPropertyOp49
 70
     1
102
RTVSPropertyOp50
 70
     1
102
RTVSPropertyOp51
 70
     0
102
RTVSPropertyOp52
 70
     0
102
RTVSPropertyOp53
 70
     1
102
RTVSPropertyOp54
 70
     1
102
RTVSPropertyOp55
 70
     1
102
RTVSPropertyOp56
 70
     1
102
RTVSPropertyOp57
 70
     1
102
RTVSPropertyOp58
 70
     1
102
RTVSPropertyOp59
 70
     1
102
RTVSPropertyOp60
 70
     1
102
RTVSPropertyOp61
 70
     1
102
RTVSPropertyOp62
 70
     1
  0
XRECORD
  5
7AE
102
{ACAD_REACTORS
330
7AD
102
}
330
7AD
100
AcDbXrecord
280
     1
102
RTVSPost2010Prop28
280
     0
102
RTVSPost2010PropOp28
 70
     1
102
RTVSPost2010Prop29
280
     1
102
RTVSPost2010PropOp29
 70
     1
102
RTVSPost2010Prop30
280
     1
102
RTVSPost2010PropOp30
 70
     1
102
RTVSPost2010Prop31
280
     0
102
RTVSPost2010PropOp31
 70
     1
102
RTVSPost2010Prop32
280
     0
102
RTVSPost2010PropOp32
 70
     1
102
RTVSPost2010Prop33
280
     0
102
RTVSPost2010PropOp33
 70
     1
102
RTVSPost2010Prop34
280
     0
102
RTVSPost2010PropOp34
 70
     1
102
RTVSPost2010Prop35
280
     0
102
RTVSPost2010PropOp35
 70
     1
102
RTVSPost2010Prop36
280
     0
102
RTVSPost2010PropOp36
 70
     1
102
RTVSPost2010Prop37
 90
       50
102
RTVSPost2010PropOp37
 70
     1
102
RTVSPost2010Prop38
140
0.0
102
RTVSPost2010PropOp38
 70
     1
102
RTVSPost2010Prop39
140
1.0
102
RTVSPost2010PropOp39
 70
     1
102
RTVSPost2010Prop40
 90
        0
102
RTVSPost2010PropOp40
 70
     1
102
RTVSPost2010Prop41ColorIndex
 90
       18
102
RTVSPost2010Prop41ColorRGB
 90
        0
102
RTVSPost2010PropOp41
 70
     1
102
RTVSPost2010Prop42
 90
       50
102
RTVSPost2010PropOp42
 70
     1
102
RTVSPost2010Prop43
 90
        3
102
RTVSPost2010PropOp43
 70
     1
102
RTVSPost2010Prop44ColorIndex
 90
        5
102
RTVSPost2010Prop44ColorRGB
 90
      255
102
RTVSPost2010PropOp44
 70
     1
102
RTVSPost2010Prop45
280
     0
102
RTVSPost2010PropOp45
 70
     1
102
RTVSPost2010Prop46
 90
       50
102
RTVSPost2010PropOp46
 70
     1
102
RTVSPost2010Prop47
 90
       50
102
RTVSPost2010PropOp47
 70
     1
102
RTVSPost2010Prop48
 90
       50
102
RTVSPost2010PropOp48
 70
     1
102
RTVSPost2010Prop49
280
     0
102
RTVSPost2010PropOp49
 70
     1
102
RTVSPost2010Prop50
 90
       50
102
RTVSPost2010PropOp50
 70
     1
102
RTVSPost2010Prop51ColorIndex
 90
      256
102
RTVSPost2010Prop51ColorRGB
 90
-16777216
102
RTVSPost2010PropOp51
 70
     0
102
RTVSPost2010Prop52
140
1.0
102
RTVSPost2010PropOp52
 70
     0
102
RTVSPost2010Prop53
 90
        2
102
RTVSPost2010PropOp53
 70
     1
102
RTVSPost2010Prop54
  1
strokes_ogs.tif
102
RTVSPost2010PropOp54
 70
     1
102
RTVSPost2010Prop55
280
     0
102
RTVSPost2010PropOp55
 70
     1
102
RTVSPost2010Prop56
140
1.0
102
RTVSPost2010PropOp56
 70
     1
102
RTVSPost2010Prop57
140
1.0
102
RTVSPost2010PropOp57
 70
     1
102
RTVSPropertyOp0
 70
     1
102
RTVSPropertyOp1
 70
     1
102
RTVSPropertyOp2
 70
     1
102
RTVSPropertyOp3
 70
     1
102
RTVSPropertyOp4
 70
     1
102
RTVSPropertyOp5
 70
     1
102
RTVSPropertyOp6
 70
     1
102
RTVSPropertyOp7
 70
     1
102
RTVSPropertyOp8
 70
     1
102
RTVSPropertyOp9
 70
     1
102
RTVSPropertyOp10
 70
     1
102
RTVSPropertyOp11
 70
     1
102
RTVSPropertyOp12
 70
     1
102
RTVSPropertyOp13
 70
     1
102
RTVSPropertyOp14
 70
     1
102
RTVSPropertyOp15
 70
     1
102
RTVSPropertyOp16
 70
     1
102
RTVSPropertyOp17
 70
     1
102
RTVSPropertyOp18
 70
     1
102
RTVSPropertyOp19
 70
     1
102
RTVSPropertyOp20
 70
     1
102
RTVSPropertyOp21
 70
     1
102
RTVSPropertyOp22
 70
     1
102
RTVSPropertyOp23
 70
     1
102
RTVSPropertyOp24
 70
     1
102
RTVSPropertyOp25
 70
     1
102
RTVSPropertyOp26
 70
     1
102
RTVSPropertyOp27
 70
     1
102
RTVSPropertyOp28
 70
     1
102
RTVSPropertyOp29
 70
     1
102
RTVSPropertyOp30
 70
     1
102
RTVSPropertyOp31
 70
     1
102
RTVSPropertyOp32
 70
     1
102
RTVSPropertyOp33
 70
     1
102
RTVSPropertyOp34
 70
     1
102
RTVSPropertyOp35
 70
     1
102
RTVSPropertyOp36
 70
     1
102
RTVSPropertyOp37
 70
     1
102
RTVSPropertyOp38
 70
     1
102
RTVSPropertyOp39
 70
     1
102
RTVSPropertyOp40
 70
     1
102
RTVSPropertyOp41
 70
     1
102
RTVSPropertyOp42
 70
     1
102
RTVSPropertyOp43
 70
     1
102
RTVSPropertyOp44
 70
     1
102
RTVSPropertyOp45
 70
     1
102
RTVSPropertyOp46
 70
     1
102
RTVSPropertyOp47
 70
     1
102
RTVSPropertyOp48
 70
     1
102
RTVSPropertyOp49
 70
     1
102
RTVSPropertyOp50
 70
     1
102
RTVSPropertyOp51
 70
     0
102
RTVSPropertyOp52
 70
     0
102
RTVSPropertyOp53
 70
     1
102
RTVSPropertyOp54
 70
     1
102
RTVSPropertyOp55
 70
     1
102
RTVSPropertyOp56
 70
     1
102
RTVSPropertyOp57
 70
     1
102
RTVSPropertyOp58
 70
     1
102
RTVSPropertyOp59
 70
     1
102
RTVSPropertyOp60
 70
     1
102
RTVSPropertyOp61
 70
     1
102
RTVSPropertyOp62
 70
     1
  0
XRECORD
  5
7B2
102
{ACAD_REACTORS
330
7B1
102
}
330
7B1
100
AcDbXrecord
280
     1
102
RTVSPost2010Prop28
280
     0
102
RTVSPost2010PropOp28
 70
     1
102
RTVSPost2010Prop29
280
     1
102
RTVSPost2010PropOp29
 70
     1
102
RTVSPost2010Prop30
280
     1
102
RTVSPost2010PropOp30
 70
     1
102
RTVSPost2010Prop31
280
     0
102
RTVSPost2010PropOp31
 70
     1
102
RTVSPost2010Prop32
280
     0
102
RTVSPost2010PropOp32
 70
     1
102
RTVSPost2010Prop33
280
     0
102
RTVSPost2010PropOp33
 70
     1
102
RTVSPost2010Prop34
280
     0
102
RTVSPost2010PropOp34
 70
     1
102
RTVSPost2010Prop35
280
     0
102
RTVSPost2010PropOp35
 70
     1
102
RTVSPost2010Prop36
280
     0
102
RTVSPost2010PropOp36
 70
     1
102
RTVSPost2010Prop37
 90
       50
102
RTVSPost2010PropOp37
 70
     1
102
RTVSPost2010Prop38
140
0.0
102
RTVSPost2010PropOp38
 70
     1
102
RTVSPost2010Prop39
140
1.0
102
RTVSPost2010PropOp39
 70
     1
102
RTVSPost2010Prop40
 90
        0
102
RTVSPost2010PropOp40
 70
     1
102
RTVSPost2010Prop41ColorIndex
 90
       18
102
RTVSPost2010Prop41ColorRGB
 90
        0
102
RTVSPost2010PropOp41
 70
     1
102
RTVSPost2010Prop42
 90
       50
102
RTVSPost2010PropOp42
 70
     1
102
RTVSPost2010Prop43
 90
        3
102
RTVSPost2010PropOp43
 70
     1
102
RTVSPost2010Prop44ColorIndex
 90
        5
102
RTVSPost2010Prop44ColorRGB
 90
      255
102
RTVSPost2010PropOp44
 70
     1
102
RTVSPost2010Prop45
280
     0
102
RTVSPost2010PropOp45
 70
     1
102
RTVSPost2010Prop46
 90
       50
102
RTVSPost2010PropOp46
 70
     1
102
RTVSPost2010Prop47
 90
       50
102
RTVSPost2010PropOp47
 70
     1
102
RTVSPost2010Prop48
 90
       50
102
RTVSPost2010PropOp48
 70
     1
102
RTVSPost2010Prop49
280
     0
102
RTVSPost2010PropOp49
 70
     1
102
RTVSPost2010Prop50
 90
       50
102
RTVSPost2010PropOp50
 70
     1
102
RTVSPost2010Prop51ColorIndex
 90
      256
102
RTVSPost2010Prop51ColorRGB
 90
-16777216
102
RTVSPost2010PropOp51
 70
     0
102
RTVSPost2010Prop52
140
1.0
102
RTVSPost2010PropOp52
 70
     0
102
RTVSPost2010Prop53
 90
        2
102
RTVSPost2010PropOp53
 70
     1
102
RTVSPost2010Prop54
  1
strokes_ogs.tif
102
RTVSPost2010PropOp54
 70
     1
102
RTVSPost2010Prop55
280
     0
102
RTVSPost2010PropOp55
 70
     1
102
RTVSPost2010Prop56
140
1.0
102
RTVSPost2010PropOp56
 70
     1
102
RTVSPost2010Prop57
140
1.0
102
RTVSPost2010PropOp57
 70
     1
102
RTVSPropertyOp0
 70
     1
102
RTVSPropertyOp1
 70
     1
102
RTVSPropertyOp2
 70
     1
102
RTVSPropertyOp3
 70
     1
102
RTVSPropertyOp4
 70
     1
102
RTVSPropertyOp5
 70
     1
102
RTVSPropertyOp6
 70
     1
102
RTVSPropertyOp7
 70
     1
102
RTVSPropertyOp8
 70
     1
102
RTVSPropertyOp9
 70
     1
102
RTVSPropertyOp10
 70
     1
102
RTVSPropertyOp11
 70
     1
102
RTVSPropertyOp12
 70
     1
102
RTVSPropertyOp13
 70
     1
102
RTVSPropertyOp14
 70
     1
102
RTVSPropertyOp15
 70
     1
102
RTVSPropertyOp16
 70
     1
102
RTVSPropertyOp17
 70
     1
102
RTVSPropertyOp18
 70
     1
102
RTVSPropertyOp19
 70
     1
102
RTVSPropertyOp20
 70
     1
102
RTVSPropertyOp21
 70
     1
102
RTVSPropertyOp22
 70
     1
102
RTVSPropertyOp23
 70
     1
102
RTVSPropertyOp24
 70
     1
102
RTVSPropertyOp25
 70
     1
102
RTVSPropertyOp26
 70
     1
102
RTVSPropertyOp27
 70
     1
102
RTVSPropertyOp28
 70
     1
102
RTVSPropertyOp29
 70
     1
102
RTVSPropertyOp30
 70
     1
102
RTVSPropertyOp31
 70
     1
102
RTVSPropertyOp32
 70
     1
102
RTVSPropertyOp33
 70
     1
102
RTVSPropertyOp34
 70
     1
102
RTVSPropertyOp35
 70
     1
102
RTVSPropertyOp36
 70
     1
102
RTVSPropertyOp37
 70
     1
102
RTVSPropertyOp38
 70
     1
102
RTVSPropertyOp39
 70
     1
102
RTVSPropertyOp40
 70
     1
102
RTVSPropertyOp41
 70
     1
102
RTVSPropertyOp42
 70
     1
102
RTVSPropertyOp43
 70
     1
102
RTVSPropertyOp44
 70
     1
102
RTVSPropertyOp45
 70
     1
102
RTVSPropertyOp46
 70
     1
102
RTVSPropertyOp47
 70
     1
102
RTVSPropertyOp48
 70
     1
102
RTVSPropertyOp49
 70
     1
102
RTVSPropertyOp50
 70
     1
102
RTVSPropertyOp51
 70
     0
102
RTVSPropertyOp52
 70
     0
102
RTVSPropertyOp53
 70
     1
102
RTVSPropertyOp54
 70
     1
102
RTVSPropertyOp55
 70
     1
102
RTVSPropertyOp56
 70
     1
102
RTVSPropertyOp57
 70
     1
102
RTVSPropertyOp58
 70
     1
102
RTVSPropertyOp59
 70
     1
102
RTVSPropertyOp60
 70
     1
102
RTVSPropertyOp61
 70
     1
102
RTVSPropertyOp62
 70
     1
  0
XRECORD
  5
7C2
102
{ACAD_REACTORS
330
7C1
102
}
330
7C1
100
AcDbXrecord
280
     1
102
RTVSPost2010Prop28
280
     0
102
RTVSPost2010PropOp28
 70
     1
102
RTVSPost2010Prop29
280
     1
102
RTVSPost2010PropOp29
 70
     1
102
RTVSPost2010Prop30
280
     1
102
RTVSPost2010PropOp30
 70
     1
102
RTVSPost2010Prop31
280
     0
102
RTVSPost2010PropOp31
 70
     1
102
RTVSPost2010Prop32
280
     0
102
RTVSPost2010PropOp32
 70
     1
102
RTVSPost2010Prop33
280
     0
102
RTVSPost2010PropOp33
 70
     1
102
RTVSPost2010Prop34
280
     0
102
RTVSPost2010PropOp34
 70
     1
102
RTVSPost2010Prop35
280
     0
102
RTVSPost2010PropOp35
 70
     1
102
RTVSPost2010Prop36
280
     0
102
RTVSPost2010PropOp36
 70
     1
102
RTVSPost2010Prop37
 90
       50
102
RTVSPost2010PropOp37
 70
     1
102
RTVSPost2010Prop38
140
0.0
102
RTVSPost2010PropOp38
 70
     1
102
RTVSPost2010Prop39
140
1.0
102
RTVSPost2010PropOp39
 70
     1
102
RTVSPost2010Prop40
 90
        0
102
RTVSPost2010PropOp40
 70
     1
102
RTVSPost2010Prop41ColorIndex
 90
       18
102
RTVSPost2010Prop41ColorRGB
 90
        0
102
RTVSPost2010PropOp41
 70
     1
102
RTVSPost2010Prop42
 90
       50
102
RTVSPost2010PropOp42
 70
     1
102
RTVSPost2010Prop43
 90
        3
102
RTVSPost2010PropOp43
 70
     1
102
RTVSPost2010Prop44ColorIndex
 90
        5
102
RTVSPost2010Prop44ColorRGB
 90
      255
102
RTVSPost2010PropOp44
 70
     1
102
RTVSPost2010Prop45
280
     0
102
RTVSPost2010PropOp45
 70
     1
102
RTVSPost2010Prop46
 90
       50
102
RTVSPost2010PropOp46
 70
     1
102
RTVSPost2010Prop47
 90
       50
102
RTVSPost2010PropOp47
 70
     1
102
RTVSPost2010Prop48
 90
       50
102
RTVSPost2010PropOp48
 70
     1
102
RTVSPost2010Prop49
280
     0
102
RTVSPost2010PropOp49
 70
     1
102
RTVSPost2010Prop50
 90
       50
102
RTVSPost2010PropOp50
 70
     1
102
RTVSPost2010Prop51ColorIndex
 90
      256
102
RTVSPost2010Prop51ColorRGB
 90
-16777216
102
RTVSPost2010PropOp51
 70
     0
102
RTVSPost2010Prop52
140
1.0
102
RTVSPost2010PropOp52
 70
     0
102
RTVSPost2010Prop53
 90
        2
102
RTVSPost2010PropOp53
 70
     1
102
RTVSPost2010Prop54
  1
strokes_ogs.tif
102
RTVSPost2010PropOp54
 70
     1
102
RTVSPost2010Prop55
280
     0
102
RTVSPost2010PropOp55
 70
     1
102
RTVSPost2010Prop56
140
1.0
102
RTVSPost2010PropOp56
 70
     1
102
RTVSPost2010Prop57
140
1.0
102
RTVSPost2010PropOp57
 70
     1
102
RTVSPropertyOp0
 70
     0
102
RTVSPropertyOp1
 70
     0
102
RTVSPropertyOp2
 70
     0
102
RTVSPropertyOp3
 70
     0
102
RTVSPropertyOp4
 70
     0
102
RTVSPropertyOp5
 70
     0
102
RTVSPropertyOp6
 70
     0
102
RTVSPropertyOp7
 70
     0
102
RTVSPropertyOp8
 70
     0
102
RTVSPropertyOp9
 70
     0
102
RTVSPropertyOp10
 70
     0
102
RTVSPropertyOp11
 70
     0
102
RTVSPropertyOp12
 70
     0
102
RTVSPropertyOp13
 70
     0
102
RTVSPropertyOp14
 70
     2
102
RTVSPropertyOp15
 70
     0
102
RTVSPropertyOp16
 70
     0
102
RTVSPropertyOp17
 70
     0
102
RTVSPropertyOp18
 70
     0
102
RTVSPropertyOp19
 70
     0
102
RTVSPropertyOp20
 70
     0
102
RTVSPropertyOp21
 70
     0
102
RTVSPropertyOp22
 70
     0
102
RTVSPropertyOp23
 70
     0
102
RTVSPropertyOp24
 70
     0
102
RTVSPropertyOp25
 70
     0
102
RTVSPropertyOp26
 70
     0
102
RTVSPropertyOp27
 70
     0
102
RTVSPropertyOp28
 70
     1
102
RTVSPropertyOp29
 70
     1
102
RTVSPropertyOp30
 70
     1
102
RTVSPropertyOp31
 70
     1
102
RTVSPropertyOp32
 70
     1
102
RTVSPropertyOp33
 70
     1
102
RTVSPropertyOp34
 70
     1
102
RTVSPropertyOp35
 70
     1
102
RTVSPropertyOp36
 70
     1
102
RTVSPropertyOp37
 70
     1
102
RTVSPropertyOp38
 70
     1
102
RTVSPropertyOp39
 70
     1
102
RTVSPropertyOp40
 70
     1
102
RTVSPropertyOp41
 70
     1
102
RTVSPropertyOp42
 70
     1
102
RTVSPropertyOp43
 70
     1
102
RTVSPropertyOp44
 70
     1
102
RTVSPropertyOp45
 70
     1
102
RTVSPropertyOp46
 70
     1
102
RTVSPropertyOp47
 70
     1
102
RTVSPropertyOp48
 70
     1
102
RTVSPropertyOp49
 70
     1
102
RTVSPropertyOp50
 70
     1
102
RTVSPropertyOp51
 70
     0
102
RTVSPropertyOp52
 70
     0
102
RTVSPropertyOp53
 70
     1
102
RTVSPropertyOp54
 70
     1
102
RTVSPropertyOp55
 70
     1
102
RTVSPropertyOp56
 70
     1
102
RTVSPropertyOp57
 70
     1
102
RTVSPropertyOp58
 70
     1
102
RTVSPropertyOp59
 70
     1
102
RTVSPropertyOp60
 70
     1
102
RTVSPropertyOp61
 70
     1
102
RTVSPropertyOp62
 70
     1
  0
XRECORD
  5
7BA
102
{ACAD_REACTORS
330
7B9
102
}
330
7B9
100
AcDbXrecord
280
     1
102
RTVSPost2010Prop28
280
     0
102
RTVSPost2010PropOp28
 70
     1
102
RTVSPost2010Prop29
280
     1
102
RTVSPost2010PropOp29
 70
     1
102
RTVSPost2010Prop30
280
     1
102
RTVSPost2010PropOp30
 70
     1
102
RTVSPost2010Prop31
280
     0
102
RTVSPost2010PropOp31
 70
     1
102
RTVSPost2010Prop32
280
     0
102
RTVSPost2010PropOp32
 70
     1
102
RTVSPost2010Prop33
280
     0
102
RTVSPost2010PropOp33
 70
     1
102
RTVSPost2010Prop34
280
     0
102
RTVSPost2010PropOp34
 70
     1
102
RTVSPost2010Prop35
280
     0
102
RTVSPost2010PropOp35
 70
     1
102
RTVSPost2010Prop36
280
     0
102
RTVSPost2010PropOp36
 70
     1
102
RTVSPost2010Prop37
 90
       50
102
RTVSPost2010PropOp37
 70
     1
102
RTVSPost2010Prop38
140
0.0
102
RTVSPost2010PropOp38
 70
     1
102
RTVSPost2010Prop39
140
1.0
102
RTVSPost2010PropOp39
 70
     1
102
RTVSPost2010Prop40
 90
        0
102
RTVSPost2010PropOp40
 70
     1
102
RTVSPost2010Prop41ColorIndex
 90
       18
102
RTVSPost2010Prop41ColorRGB
 90
        0
102
RTVSPost2010PropOp41
 70
     1
102
RTVSPost2010Prop42
 90
       50
102
RTVSPost2010PropOp42
 70
     1
102
RTVSPost2010Prop43
 90
        3
102
RTVSPost2010PropOp43
 70
     1
102
RTVSPost2010Prop44ColorIndex
 90
        5
102
RTVSPost2010Prop44ColorRGB
 90
      255
102
RTVSPost2010PropOp44
 70
     1
102
RTVSPost2010Prop45
280
     0
102
RTVSPost2010PropOp45
 70
     1
102
RTVSPost2010Prop46
 90
       50
102
RTVSPost2010PropOp46
 70
     1
102
RTVSPost2010Prop47
 90
       50
102
RTVSPost2010PropOp47
 70
     1
102
RTVSPost2010Prop48
 90
       50
102
RTVSPost2010PropOp48
 70
     1
102
RTVSPost2010Prop49
280
     0
102
RTVSPost2010PropOp49
 70
     1
102
RTVSPost2010Prop50
 90
       50
102
RTVSPost2010PropOp50
 70
     1
102
RTVSPost2010Prop51ColorIndex
 90
      256
102
RTVSPost2010Prop51ColorRGB
 90
-16777216
102
RTVSPost2010PropOp51
 70
     0
102
RTVSPost2010Prop52
140
1.0
102
RTVSPost2010PropOp52
 70
     0
102
RTVSPost2010Prop53
 90
        2
102
RTVSPost2010PropOp53
 70
     1
102
RTVSPost2010Prop54
  1
strokes_ogs.tif
102
RTVSPost2010PropOp54
 70
     1
102
RTVSPost2010Prop55
280
     0
102
RTVSPost2010PropOp55
 70
     1
102
RTVSPost2010Prop56
140
1.0
102
RTVSPost2010PropOp56
 70
     1
102
RTVSPost2010Prop57
140
1.0
102
RTVSPost2010PropOp57
 70
     1
102
RTVSPropertyOp0
 70
     1
102
RTVSPropertyOp1
 70
     1
102
RTVSPropertyOp2
 70
     1
102
RTVSPropertyOp3
 70
     1
102
RTVSPropertyOp4
 70
     1
102
RTVSPropertyOp5
 70
     1
102
RTVSPropertyOp6
 70
     1
102
RTVSPropertyOp7
 70
     1
102
RTVSPropertyOp8
 70
     1
102
RTVSPropertyOp9
 70
     1
102
RTVSPropertyOp10
 70
     1
102
RTVSPropertyOp11
 70
     1
102
RTVSPropertyOp12
 70
     1
102
RTVSPropertyOp13
 70
     1
102
RTVSPropertyOp14
 70
     1
102
RTVSPropertyOp15
 70
     1
102
RTVSPropertyOp16
 70
     1
102
RTVSPropertyOp17
 70
     1
102
RTVSPropertyOp18
 70
     1
102
RTVSPropertyOp19
 70
     1
102
RTVSPropertyOp20
 70
     1
102
RTVSPropertyOp21
 70
     1
102
RTVSPropertyOp22
 70
     1
102
RTVSPropertyOp23
 70
     1
102
RTVSPropertyOp24
 70
     1
102
RTVSPropertyOp25
 70
     1
102
RTVSPropertyOp26
 70
     1
102
RTVSPropertyOp27
 70
     1
102
RTVSPropertyOp28
 70
     1
102
RTVSPropertyOp29
 70
     1
102
RTVSPropertyOp30
 70
     1
102
RTVSPropertyOp31
 70
     1
102
RTVSPropertyOp32
 70
     1
102
RTVSPropertyOp33
 70
     1
102
RTVSPropertyOp34
 70
     1
102
RTVSPropertyOp35
 70
     1
102
RTVSPropertyOp36
 70
     1
102
RTVSPropertyOp37
 70
     1
102
RTVSPropertyOp38
 70
     1
102
RTVSPropertyOp39
 70
     1
102
RTVSPropertyOp40
 70
     1
102
RTVSPropertyOp41
 70
     1
102
RTVSPropertyOp42
 70
     1
102
RTVSPropertyOp43
 70
     1
102
RTVSPropertyOp44
 70
     1
102
RTVSPropertyOp45
 70
     1
102
RTVSPropertyOp46
 70
     1
102
RTVSPropertyOp47
 70
     1
102
RTVSPropertyOp48
 70
     1
102
RTVSPropertyOp49
 70
     1
102
RTVSPropertyOp50
 70
     1
102
RTVSPropertyOp51
 70
     0
102
RTVSPropertyOp52
 70
     0
102
RTVSPropertyOp53
 70
     1
102
RTVSPropertyOp54
 70
     1
102
RTVSPropertyOp55
 70
     1
102
RTVSPropertyOp56
 70
     1
102
RTVSPropertyOp57
 70
     1
102
RTVSPropertyOp58
 70
     1
102
RTVSPropertyOp59
 70
     1
102
RTVSPropertyOp60
 70
     1
102
RTVSPropertyOp61
 70
     1
102
RTVSPropertyOp62
 70
     1
  0
XRECORD
  5
79E
102
{ACAD_REACTORS
330
79D
102
}
330
79D
100
AcDbXrecord
280
     1
102
RTVSPost2010Prop28
280
     0
102
RTVSPost2010PropOp28
 70
     1
102
RTVSPost2010Prop29
280
     1
102
RTVSPost2010PropOp29
 70
     1
102
RTVSPost2010Prop30
280
     1
102
RTVSPost2010PropOp30
 70
     1
102
RTVSPost2010Prop31
280
     0
102
RTVSPost2010PropOp31
 70
     1
102
RTVSPost2010Prop32
280
     0
102
RTVSPost2010PropOp32
 70
     1
102
RTVSPost2010Prop33
280
     0
102
RTVSPost2010PropOp33
 70
     1
102
RTVSPost2010Prop34
280
     0
102
RTVSPost2010PropOp34
 70
     1
102
RTVSPost2010Prop35
280
     0
102
RTVSPost2010PropOp35
 70
     1
102
RTVSPost2010Prop36
280
     0
102
RTVSPost2010PropOp36
 70
     1
102
RTVSPost2010Prop37
 90
       50
102
RTVSPost2010PropOp37
 70
     1
102
RTVSPost2010Prop38
140
0.0
102
RTVSPost2010PropOp38
 70
     1
102
RTVSPost2010Prop39
140
1.0
102
RTVSPost2010PropOp39
 70
     1
102
RTVSPost2010Prop40
 90
        0
102
RTVSPost2010PropOp40
 70
     1
102
RTVSPost2010Prop41ColorIndex
 90
       18
102
RTVSPost2010Prop41ColorRGB
 90
        0
102
RTVSPost2010PropOp41
 70
     1
102
RTVSPost2010Prop42
 90
       50
102
RTVSPost2010PropOp42
 70
     1
102
RTVSPost2010Prop43
 90
        3
102
RTVSPost2010PropOp43
 70
     1
102
RTVSPost2010Prop44ColorIndex
 90
        5
102
RTVSPost2010Prop44ColorRGB
 90
      255
102
RTVSPost2010PropOp44
 70
     1
102
RTVSPost2010Prop45
280
     0
102
RTVSPost2010PropOp45
 70
     1
102
RTVSPost2010Prop46
 90
       50
102
RTVSPost2010PropOp46
 70
     1
102
RTVSPost2010Prop47
 90
       50
102
RTVSPost2010PropOp47
 70
     1
102
RTVSPost2010Prop48
 90
       50
102
RTVSPost2010PropOp48
 70
     1
102
RTVSPost2010Prop49
280
     0
102
RTVSPost2010PropOp49
 70
     1
102
RTVSPost2010Prop50
 90
       50
102
RTVSPost2010PropOp50
 70
     1
102
RTVSPost2010Prop51ColorIndex
 90
      256
102
RTVSPost2010Prop51ColorRGB
 90
-16777216
102
RTVSPost2010PropOp51
 70
     0
102
RTVSPost2010Prop52
140
1.0
102
RTVSPost2010PropOp52
 70
     0
102
RTVSPost2010Prop53
 90
        2
102
RTVSPost2010PropOp53
 70
     1
102
RTVSPost2010Prop54
  1
strokes_ogs.tif
102
RTVSPost2010PropOp54
 70
     1
102
RTVSPost2010Prop55
280
     0
102
RTVSPost2010PropOp55
 70
     1
102
RTVSPost2010Prop56
140
1.0
102
RTVSPost2010PropOp56
 70
     1
102
RTVSPost2010Prop57
140
1.0
102
RTVSPost2010PropOp57
 70
     1
102
RTVSPropertyOp0
 70
     1
102
RTVSPropertyOp1
 70
     1
102
RTVSPropertyOp2
 70
     1
102
RTVSPropertyOp3
 70
     1
102
RTVSPropertyOp4
 70
     1
102
RTVSPropertyOp5
 70
     1
102
RTVSPropertyOp6
 70
     1
102
RTVSPropertyOp7
 70
     1
102
RTVSPropertyOp8
 70
     1
102
RTVSPropertyOp9
 70
     1
102
RTVSPropertyOp10
 70
     1
102
RTVSPropertyOp11
 70
     1
102
RTVSPropertyOp12
 70
     1
102
RTVSPropertyOp13
 70
     1
102
RTVSPropertyOp14
 70
     1
102
RTVSPropertyOp15
 70
     1
102
RTVSPropertyOp16
 70
     1
102
RTVSPropertyOp17
 70
     1
102
RTVSPropertyOp18
 70
     1
102
RTVSPropertyOp19
 70
     1
102
RTVSPropertyOp20
 70
     1
102
RTVSPropertyOp21
 70
     1
102
RTVSPropertyOp22
 70
     1
102
RTVSPropertyOp23
 70
     1
102
RTVSPropertyOp24
 70
     1
102
RTVSPropertyOp25
 70
     1
102
RTVSPropertyOp26
 70
     1
102
RTVSPropertyOp27
 70
     1
102
RTVSPropertyOp28
 70
     1
102
RTVSPropertyOp29
 70
     1
102
RTVSPropertyOp30
 70
     1
102
RTVSPropertyOp31
 70
     1
102
RTVSPropertyOp32
 70
     1
102
RTVSPropertyOp33
 70
     1
102
RTVSPropertyOp34
 70
     1
102
RTVSPropertyOp35
 70
     1
102
RTVSPropertyOp36
 70
     1
102
RTVSPropertyOp37
 70
     1
102
RTVSPropertyOp38
 70
     1
102
RTVSPropertyOp39
 70
     1
102
RTVSPropertyOp40
 70
     1
102
RTVSPropertyOp41
 70
     1
102
RTVSPropertyOp42
 70
     1
102
RTVSPropertyOp43
 70
     1
102
RTVSPropertyOp44
 70
     1
102
RTVSPropertyOp45
 70
     1
102
RTVSPropertyOp46
 70
     1
102
RTVSPropertyOp47
 70
     1
102
RTVSPropertyOp48
 70
     1
102
RTVSPropertyOp49
 70
     1
102
RTVSPropertyOp50
 70
     1
102
RTVSPropertyOp51
 70
     0
102
RTVSPropertyOp52
 70
     0
102
RTVSPropertyOp53
 70
     1
102
RTVSPropertyOp54
 70
     1
102
RTVSPropertyOp55
 70
     1
102
RTVSPropertyOp56
 70
     1
102
RTVSPropertyOp57
 70
     1
102
RTVSPropertyOp58
 70
     1
102
RTVSPropertyOp59
 70
     1
102
RTVSPropertyOp60
 70
     1
102
RTVSPropertyOp61
 70
     1
102
RTVSPropertyOp62
 70
     1
  0
XRECORD
  5
7A0
102
{ACAD_REACTORS
330
79F
102
}
330
79F
100
AcDbXrecord
280
     1
102
RTVSPost2010Prop28
280
     0
102
RTVSPost2010PropOp28
 70
     1
102
RTVSPost2010Prop29
280
     1
102
RTVSPost2010PropOp29
 70
     1
102
RTVSPost2010Prop30
280
     1
102
RTVSPost2010PropOp30
 70
     1
102
RTVSPost2010Prop31
280
     0
102
RTVSPost2010PropOp31
 70
     1
102
RTVSPost2010Prop32
280
     0
102
RTVSPost2010PropOp32
 70
     1
102
RTVSPost2010Prop33
280
     0
102
RTVSPost2010PropOp33
 70
     1
102
RTVSPost2010Prop34
280
     0
102
RTVSPost2010PropOp34
 70
     1
102
RTVSPost2010Prop35
280
     0
102
RTVSPost2010PropOp35
 70
     1
102
RTVSPost2010Prop36
280
     0
102
RTVSPost2010PropOp36
 70
     1
102
RTVSPost2010Prop37
 90
       50
102
RTVSPost2010PropOp37
 70
     1
102
RTVSPost2010Prop38
140
0.0
102
RTVSPost2010PropOp38
 70
     1
102
RTVSPost2010Prop39
140
1.0
102
RTVSPost2010PropOp39
 70
     1
102
RTVSPost2010Prop40
 90
        0
102
RTVSPost2010PropOp40
 70
     1
102
RTVSPost2010Prop41ColorIndex
 90
       18
102
RTVSPost2010Prop41ColorRGB
 90
        0
102
RTVSPost2010PropOp41
 70
     1
102
RTVSPost2010Prop42
 90
       50
102
RTVSPost2010PropOp42
 70
     1
102
RTVSPost2010Prop43
 90
        3
102
RTVSPost2010PropOp43
 70
     1
102
RTVSPost2010Prop44ColorIndex
 90
        5
102
RTVSPost2010Prop44ColorRGB
 90
      255
102
RTVSPost2010PropOp44
 70
     1
102
RTVSPost2010Prop45
280
     0
102
RTVSPost2010PropOp45
 70
     1
102
RTVSPost2010Prop46
 90
       50
102
RTVSPost2010PropOp46
 70
     1
102
RTVSPost2010Prop47
 90
       50
102
RTVSPost2010PropOp47
 70
     1
102
RTVSPost2010Prop48
 90
       50
102
RTVSPost2010PropOp48
 70
     1
102
RTVSPost2010Prop49
280
     0
102
RTVSPost2010PropOp49
 70
     1
102
RTVSPost2010Prop50
 90
       50
102
RTVSPost2010PropOp50
 70
     1
102
RTVSPost2010Prop51ColorIndex
 90
      256
102
RTVSPost2010Prop51ColorRGB
 90
-16777216
102
RTVSPost2010PropOp51
 70
     0
102
RTVSPost2010Prop52
140
1.0
102
RTVSPost2010PropOp52
 70
     0
102
RTVSPost2010Prop53
 90
        2
102
RTVSPost2010PropOp53
 70
     1
102
RTVSPost2010Prop54
  1
strokes_ogs.tif
102
RTVSPost2010PropOp54
 70
     1
102
RTVSPost2010Prop55
280
     0
102
RTVSPost2010PropOp55
 70
     1
102
RTVSPost2010Prop56
140
1.0
102
RTVSPost2010PropOp56
 70
     1
102
RTVSPost2010Prop57
140
1.0
102
RTVSPost2010PropOp57
 70
     1
102
RTVSPropertyOp0
 70
     1
102
RTVSPropertyOp1
 70
     1
102
RTVSPropertyOp2
 70
     1
102
RTVSPropertyOp3
 70
     1
102
RTVSPropertyOp4
 70
     1
102
RTVSPropertyOp5
 70
     1
102
RTVSPropertyOp6
 70
     1
102
RTVSPropertyOp7
 70
     1
102
RTVSPropertyOp8
 70
     1
102
RTVSPropertyOp9
 70
     1
102
RTVSPropertyOp10
 70
     1
102
RTVSPropertyOp11
 70
     1
102
RTVSPropertyOp12
 70
     1
102
RTVSPropertyOp13
 70
     1
102
RTVSPropertyOp14
 70
     1
102
RTVSPropertyOp15
 70
     1
102
RTVSPropertyOp16
 70
     1
102
RTVSPropertyOp17
 70
     1
102
RTVSPropertyOp18
 70
     1
102
RTVSPropertyOp19
 70
     1
102
RTVSPropertyOp20
 70
     1
102
RTVSPropertyOp21
 70
     1
102
RTVSPropertyOp22
 70
     1
102
RTVSPropertyOp23
 70
     1
102
RTVSPropertyOp24
 70
     1
102
RTVSPropertyOp25
 70
     1
102
RTVSPropertyOp26
 70
     1
102
RTVSPropertyOp27
 70
     1
102
RTVSPropertyOp28
 70
     1
102
RTVSPropertyOp29
 70
     1
102
RTVSPropertyOp30
 70
     1
102
RTVSPropertyOp31
 70
     1
102
RTVSPropertyOp32
 70
     1
102
RTVSPropertyOp33
 70
     1
102
RTVSPropertyOp34
 70
     1
102
RTVSPropertyOp35
 70
     1
102
RTVSPropertyOp36
 70
     1
102
RTVSPropertyOp37
 70
     1
102
RTVSPropertyOp38
 70
     1
102
RTVSPropertyOp39
 70
     1
102
RTVSPropertyOp40
 70
     1
102
RTVSPropertyOp41
 70
     1
102
RTVSPropertyOp42
 70
     1
102
RTVSPropertyOp43
 70
     1
102
RTVSPropertyOp44
 70
     1
102
RTVSPropertyOp45
 70
     1
102
RTVSPropertyOp46
 70
     1
102
RTVSPropertyOp47
 70
     1
102
RTVSPropertyOp48
 70
     1
102
RTVSPropertyOp49
 70
     1
102
RTVSPropertyOp50
 70
     1
102
RTVSPropertyOp51
 70
     0
102
RTVSPropertyOp52
 70
     0
102
RTVSPropertyOp53
 70
     1
102
RTVSPropertyOp54
 70
     1
102
RTVSPropertyOp55
 70
     1
102
RTVSPropertyOp56
 70
     1
102
RTVSPropertyOp57
 70
     1
102
RTVSPropertyOp58
 70
     1
102
RTVSPropertyOp59
 70
     1
102
RTVSPropertyOp60
 70
     1
102
RTVSPropertyOp61
 70
     1
102
RTVSPropertyOp62
 70
     1
  0
XRECORD
  5
7A2
102
{ACAD_REACTORS
330
7A1
102
}
330
7A1
100
AcDbXrecord
280
     1
102
RTVSPost2010Prop28
280
     0
102
RTVSPost2010PropOp28
 70
     1
102
RTVSPost2010Prop29
280
     1
102
RTVSPost2010PropOp29
 70
     1
102
RTVSPost2010Prop30
280
     1
102
RTVSPost2010PropOp30
 70
     1
102
RTVSPost2010Prop31
280
     0
102
RTVSPost2010PropOp31
 70
     1
102
RTVSPost2010Prop32
280
     0
102
RTVSPost2010PropOp32
 70
     1
102
RTVSPost2010Prop33
280
     0
102
RTVSPost2010PropOp33
 70
     1
102
RTVSPost2010Prop34
280
     0
102
RTVSPost2010PropOp34
 70
     1
102
RTVSPost2010Prop35
280
     0
102
RTVSPost2010PropOp35
 70
     1
102
RTVSPost2010Prop36
280
     0
102
RTVSPost2010PropOp36
 70
     1
102
RTVSPost2010Prop37
 90
       50
102
RTVSPost2010PropOp37
 70
     1
102
RTVSPost2010Prop38
140
0.0
102
RTVSPost2010PropOp38
 70
     1
102
RTVSPost2010Prop39
140
1.0
102
RTVSPost2010PropOp39
 70
     1
102
RTVSPost2010Prop40
 90
        0
102
RTVSPost2010PropOp40
 70
     1
102
RTVSPost2010Prop41ColorIndex
 90
       18
102
RTVSPost2010Prop41ColorRGB
 90
        0
102
RTVSPost2010PropOp41
 70
     1
102
RTVSPost2010Prop42
 90
       50
102
RTVSPost2010PropOp42
 70
     1
102
RTVSPost2010Prop43
 90
        3
102
RTVSPost2010PropOp43
 70
     1
102
RTVSPost2010Prop44ColorIndex
 90
        5
102
RTVSPost2010Prop44ColorRGB
 90
      255
102
RTVSPost2010PropOp44
 70
     1
102
RTVSPost2010Prop45
280
     0
102
RTVSPost2010PropOp45
 70
     1
102
RTVSPost2010Prop46
 90
       50
102
RTVSPost2010PropOp46
 70
     1
102
RTVSPost2010Prop47
 90
       50
102
RTVSPost2010PropOp47
 70
     1
102
RTVSPost2010Prop48
 90
       50
102
RTVSPost2010PropOp48
 70
     1
102
RTVSPost2010Prop49
280
     0
102
RTVSPost2010PropOp49
 70
     1
102
RTVSPost2010Prop50
 90
       50
102
RTVSPost2010PropOp50
 70
     1
102
RTVSPost2010Prop51ColorIndex
 90
      256
102
RTVSPost2010Prop51ColorRGB
 90
-16777216
102
RTVSPost2010PropOp51
 70
     0
102
RTVSPost2010Prop52
140
1.0
102
RTVSPost2010PropOp52
 70
     0
102
RTVSPost2010Prop53
 90
        2
102
RTVSPost2010PropOp53
 70
     1
102
RTVSPost2010Prop54
  1
strokes_ogs.tif
102
RTVSPost2010PropOp54
 70
     1
102
RTVSPost2010Prop55
280
     0
102
RTVSPost2010PropOp55
 70
     1
102
RTVSPost2010Prop56
140
1.0
102
RTVSPost2010PropOp56
 70
     1
102
RTVSPost2010Prop57
140
1.0
102
RTVSPost2010PropOp57
 70
     1
102
RTVSPropertyOp0
 70
     1
102
RTVSPropertyOp1
 70
     1
102
RTVSPropertyOp2
 70
     1
102
RTVSPropertyOp3
 70
     1
102
RTVSPropertyOp4
 70
     1
102
RTVSPropertyOp5
 70
     1
102
RTVSPropertyOp6
 70
     1
102
RTVSPropertyOp7
 70
     1
102
RTVSPropertyOp8
 70
     1
102
RTVSPropertyOp9
 70
     1
102
RTVSPropertyOp10
 70
     1
102
RTVSPropertyOp11
 70
     1
102
RTVSPropertyOp12
 70
     1
102
RTVSPropertyOp13
 70
     1
102
RTVSPropertyOp14
 70
     1
102
RTVSPropertyOp15
 70
     1
102
RTVSPropertyOp16
 70
     1
102
RTVSPropertyOp17
 70
     1
102
RTVSPropertyOp18
 70
     1
102
RTVSPropertyOp19
 70
     1
102
RTVSPropertyOp20
 70
     1
102
RTVSPropertyOp21
 70
     1
102
RTVSPropertyOp22
 70
     1
102
RTVSPropertyOp23
 70
     1
102
RTVSPropertyOp24
 70
     1
102
RTVSPropertyOp25
 70
     1
102
RTVSPropertyOp26
 70
     1
102
RTVSPropertyOp27
 70
     1
102
RTVSPropertyOp28
 70
     1
102
RTVSPropertyOp29
 70
     1
102
RTVSPropertyOp30
 70
     1
102
RTVSPropertyOp31
 70
     1
102
RTVSPropertyOp32
 70
     1
102
RTVSPropertyOp33
 70
     1
102
RTVSPropertyOp34
 70
     1
102
RTVSPropertyOp35
 70
     1
102
RTVSPropertyOp36
 70
     1
102
RTVSPropertyOp37
 70
     1
102
RTVSPropertyOp38
 70
     1
102
RTVSPropertyOp39
 70
     1
102
RTVSPropertyOp40
 70
     1
102
RTVSPropertyOp41
 70
     1
102
RTVSPropertyOp42
 70
     1
102
RTVSPropertyOp43
 70
     1
102
RTVSPropertyOp44
 70
     1
102
RTVSPropertyOp45
 70
     1
102
RTVSPropertyOp46
 70
     1
102
RTVSPropertyOp47
 70
     1
102
RTVSPropertyOp48
 70
     1
102
RTVSPropertyOp49
 70
     1
102
RTVSPropertyOp50
 70
     1
102
RTVSPropertyOp51
 70
     0
102
RTVSPropertyOp52
 70
     0
102
RTVSPropertyOp53
 70
     1
102
RTVSPropertyOp54
 70
     1
102
RTVSPropertyOp55
 70
     1
102
RTVSPropertyOp56
 70
     1
102
RTVSPropertyOp57
 70
     1
102
RTVSPropertyOp58
 70
     1
102
RTVSPropertyOp59
 70
     1
102
RTVSPropertyOp60
 70
     1
102
RTVSPropertyOp61
 70
     1
102
RTVSPropertyOp62
 70
     1
  0
XRECORD
  5
7A4
102
{ACAD_REACTORS
330
7A3
102
}
330
7A3
100
AcDbXrecord
280
     1
102
RTVSPost2010Prop28
280
     0
102
RTVSPost2010PropOp28
 70
     1
102
RTVSPost2010Prop29
280
     1
102
RTVSPost2010PropOp29
 70
     1
102
RTVSPost2010Prop30
280
     1
102
RTVSPost2010PropOp30
 70
     1
102
RTVSPost2010Prop31
280
     0
102
RTVSPost2010PropOp31
 70
     1
102
RTVSPost2010Prop32
280
     0
102
RTVSPost2010PropOp32
 70
     1
102
RTVSPost2010Prop33
280
     0
102
RTVSPost2010PropOp33
 70
     1
102
RTVSPost2010Prop34
280
     0
102
RTVSPost2010PropOp34
 70
     1
102
RTVSPost2010Prop35
280
     0
102
RTVSPost2010PropOp35
 70
     1
102
RTVSPost2010Prop36
280
     0
102
RTVSPost2010PropOp36
 70
     1
102
RTVSPost2010Prop37
 90
       50
102
RTVSPost2010PropOp37
 70
     1
102
RTVSPost2010Prop38
140
0.0
102
RTVSPost2010PropOp38
 70
     1
102
RTVSPost2010Prop39
140
1.0
102
RTVSPost2010PropOp39
 70
     1
102
RTVSPost2010Prop40
 90
        0
102
RTVSPost2010PropOp40
 70
     1
102
RTVSPost2010Prop41ColorIndex
 90
       18
102
RTVSPost2010Prop41ColorRGB
 90
        0
102
RTVSPost2010PropOp41
 70
     1
102
RTVSPost2010Prop42
 90
       50
102
RTVSPost2010PropOp42
 70
     1
102
RTVSPost2010Prop43
 90
        3
102
RTVSPost2010PropOp43
 70
     1
102
RTVSPost2010Prop44ColorIndex
 90
        5
102
RTVSPost2010Prop44ColorRGB
 90
      255
102
RTVSPost2010PropOp44
 70
     1
102
RTVSPost2010Prop45
280
     0
102
RTVSPost2010PropOp45
 70
     1
102
RTVSPost2010Prop46
 90
       50
102
RTVSPost2010PropOp46
 70
     1
102
RTVSPost2010Prop47
 90
       50
102
RTVSPost2010PropOp47
 70
     1
102
RTVSPost2010Prop48
 90
       50
102
RTVSPost2010PropOp48
 70
     1
102
RTVSPost2010Prop49
280
     0
102
RTVSPost2010PropOp49
 70
     1
102
RTVSPost2010Prop50
 90
       50
102
RTVSPost2010PropOp50
 70
     1
102
RTVSPost2010Prop51ColorIndex
 90
      256
102
RTVSPost2010Prop51ColorRGB
 90
-16777216
102
RTVSPost2010PropOp51
 70
     0
102
RTVSPost2010Prop52
140
1.0
102
RTVSPost2010PropOp52
 70
     0
102
RTVSPost2010Prop53
 90
        2
102
RTVSPost2010PropOp53
 70
     1
102
RTVSPost2010Prop54
  1
strokes_ogs.tif
102
RTVSPost2010PropOp54
 70
     1
102
RTVSPost2010Prop55
280
     0
102
RTVSPost2010PropOp55
 70
     1
102
RTVSPost2010Prop56
140
1.0
102
RTVSPost2010PropOp56
 70
     1
102
RTVSPost2010Prop57
140
1.0
102
RTVSPost2010PropOp57
 70
     1
102
RTVSPropertyOp0
 70
     1
102
RTVSPropertyOp1
 70
     1
102
RTVSPropertyOp2
 70
     1
102
RTVSPropertyOp3
 70
     1
102
RTVSPropertyOp4
 70
     1
102
RTVSPropertyOp5
 70
     1
102
RTVSPropertyOp6
 70
     1
102
RTVSPropertyOp7
 70
     1
102
RTVSPropertyOp8
 70
     1
102
RTVSPropertyOp9
 70
     1
102
RTVSPropertyOp10
 70
     1
102
RTVSPropertyOp11
 70
     1
102
RTVSPropertyOp12
 70
     1
102
RTVSPropertyOp13
 70
     1
102
RTVSPropertyOp14
 70
     1
102
RTVSPropertyOp15
 70
     1
102
RTVSPropertyOp16
 70
     1
102
RTVSPropertyOp17
 70
     1
102
RTVSPropertyOp18
 70
     1
102
RTVSPropertyOp19
 70
     1
102
RTVSPropertyOp20
 70
     1
102
RTVSPropertyOp21
 70
     1
102
RTVSPropertyOp22
 70
     1
102
RTVSPropertyOp23
 70
     1
102
RTVSPropertyOp24
 70
     1
102
RTVSPropertyOp25
 70
     1
102
RTVSPropertyOp26
 70
     1
102
RTVSPropertyOp27
 70
     1
102
RTVSPropertyOp28
 70
     1
102
RTVSPropertyOp29
 70
     1
102
RTVSPropertyOp30
 70
     1
102
RTVSPropertyOp31
 70
     1
102
RTVSPropertyOp32
 70
     1
102
RTVSPropertyOp33
 70
     1
102
RTVSPropertyOp34
 70
     1
102
RTVSPropertyOp35
 70
     1
102
RTVSPropertyOp36
 70
     1
102
RTVSPropertyOp37
 70
     1
102
RTVSPropertyOp38
 70
     1
102
RTVSPropertyOp39
 70
     1
102
RTVSPropertyOp40
 70
     1
102
RTVSPropertyOp41
 70
     1
102
RTVSPropertyOp42
 70
     1
102
RTVSPropertyOp43
 70
     1
102
RTVSPropertyOp44
 70
     1
102
RTVSPropertyOp45
 70
     1
102
RTVSPropertyOp46
 70
     1
102
RTVSPropertyOp47
 70
     1
102
RTVSPropertyOp48
 70
     1
102
RTVSPropertyOp49
 70
     1
102
RTVSPropertyOp50
 70
     1
102
RTVSPropertyOp51
 70
     0
102
RTVSPropertyOp52
 70
     0
102
RTVSPropertyOp53
 70
     1
102
RTVSPropertyOp54
 70
     1
102
RTVSPropertyOp55
 70
     1
102
RTVSPropertyOp56
 70
     1
102
RTVSPropertyOp57
 70
     1
102
RTVSPropertyOp58
 70
     1
102
RTVSPropertyOp59
 70
     1
102
RTVSPropertyOp60
 70
     1
102
RTVSPropertyOp61
 70
     1
102
RTVSPropertyOp62
 70
     1
  0
XRECORD
  5
7AC
102
{ACAD_REACTORS
330
7AB
102
}
330
7AB
100
AcDbXrecord
280
     1
102
RTVSPost2010Prop28
280
     0
102
RTVSPost2010PropOp28
 70
     1
102
RTVSPost2010Prop29
280
     1
102
RTVSPost2010PropOp29
 70
     1
102
RTVSPost2010Prop30
280
     1
102
RTVSPost2010PropOp30
 70
     1
102
RTVSPost2010Prop31
280
     0
102
RTVSPost2010PropOp31
 70
     1
102
RTVSPost2010Prop32
280
     0
102
RTVSPost2010PropOp32
 70
     1
102
RTVSPost2010Prop33
280
     0
102
RTVSPost2010PropOp33
 70
     1
102
RTVSPost2010Prop34
280
     0
102
RTVSPost2010PropOp34
 70
     1
102
RTVSPost2010Prop35
280
     0
102
RTVSPost2010PropOp35
 70
     1
102
RTVSPost2010Prop36
280
     0
102
RTVSPost2010PropOp36
 70
     1
102
RTVSPost2010Prop37
 90
       50
102
RTVSPost2010PropOp37
 70
     1
102
RTVSPost2010Prop38
140
0.0
102
RTVSPost2010PropOp38
 70
     1
102
RTVSPost2010Prop39
140
1.0
102
RTVSPost2010PropOp39
 70
     1
102
RTVSPost2010Prop40
 90
        0
102
RTVSPost2010PropOp40
 70
     1
102
RTVSPost2010Prop41ColorIndex
 90
       18
102
RTVSPost2010Prop41ColorRGB
 90
        0
102
RTVSPost2010PropOp41
 70
     1
102
RTVSPost2010Prop42
 90
       50
102
RTVSPost2010PropOp42
 70
     1
102
RTVSPost2010Prop43
 90
        3
102
RTVSPost2010PropOp43
 70
     1
102
RTVSPost2010Prop44ColorIndex
 90
        5
102
RTVSPost2010Prop44ColorRGB
 90
      255
102
RTVSPost2010PropOp44
 70
     1
102
RTVSPost2010Prop45
280
     0
102
RTVSPost2010PropOp45
 70
     1
102
RTVSPost2010Prop46
 90
       50
102
RTVSPost2010PropOp46
 70
     1
102
RTVSPost2010Prop47
 90
       50
102
RTVSPost2010PropOp47
 70
     1
102
RTVSPost2010Prop48
 90
       50
102
RTVSPost2010PropOp48
 70
     1
102
RTVSPost2010Prop49
280
     0
102
RTVSPost2010PropOp49
 70
     1
102
RTVSPost2010Prop50
 90
       50
102
RTVSPost2010PropOp50
 70
     1
102
RTVSPost2010Prop51ColorIndex
 90
      256
102
RTVSPost2010Prop51ColorRGB
 90
-16777216
102
RTVSPost2010PropOp51
 70
     0
102
RTVSPost2010Prop52
140
1.0
102
RTVSPost2010PropOp52
 70
     0
102
RTVSPost2010Prop53
 90
        2
102
RTVSPost2010PropOp53
 70
     1
102
RTVSPost2010Prop54
  1
strokes_ogs.tif
102
RTVSPost2010PropOp54
 70
     1
102
RTVSPost2010Prop55
280
     0
102
RTVSPost2010PropOp55
 70
     1
102
RTVSPost2010Prop56
140
1.0
102
RTVSPost2010PropOp56
 70
     1
102
RTVSPost2010Prop57
140
1.0
102
RTVSPost2010PropOp57
 70
     1
102
RTVSPropertyOp0
 70
     1
102
RTVSPropertyOp1
 70
     1
102
RTVSPropertyOp2
 70
     1
102
RTVSPropertyOp3
 70
     1
102
RTVSPropertyOp4
 70
     1
102
RTVSPropertyOp5
 70
     1
102
RTVSPropertyOp6
 70
     1
102
RTVSPropertyOp7
 70
     1
102
RTVSPropertyOp8
 70
     1
102
RTVSPropertyOp9
 70
     1
102
RTVSPropertyOp10
 70
     1
102
RTVSPropertyOp11
 70
     1
102
RTVSPropertyOp12
 70
     1
102
RTVSPropertyOp13
 70
     1
102
RTVSPropertyOp14
 70
     1
102
RTVSPropertyOp15
 70
     1
102
RTVSPropertyOp16
 70
     1
102
RTVSPropertyOp17
 70
     1
102
RTVSPropertyOp18
 70
     1
102
RTVSPropertyOp19
 70
     1
102
RTVSPropertyOp20
 70
     1
102
RTVSPropertyOp21
 70
     1
102
RTVSPropertyOp22
 70
     1
102
RTVSPropertyOp23
 70
     1
102
RTVSPropertyOp24
 70
     1
102
RTVSPropertyOp25
 70
     1
102
RTVSPropertyOp26
 70
     1
102
RTVSPropertyOp27
 70
     1
102
RTVSPropertyOp28
 70
     1
102
RTVSPropertyOp29
 70
     1
102
RTVSPropertyOp30
 70
     1
102
RTVSPropertyOp31
 70
     1
102
RTVSPropertyOp32
 70
     1
102
RTVSPropertyOp33
 70
     1
102
RTVSPropertyOp34
 70
     1
102
RTVSPropertyOp35
 70
     1
102
RTVSPropertyOp36
 70
     1
102
RTVSPropertyOp37
 70
     1
102
RTVSPropertyOp38
 70
     1
102
RTVSPropertyOp39
 70
     1
102
RTVSPropertyOp40
 70
     1
102
RTVSPropertyOp41
 70
     1
102
RTVSPropertyOp42
 70
     1
102
RTVSPropertyOp43
 70
     1
102
RTVSPropertyOp44
 70
     1
102
RTVSPropertyOp45
 70
     1
102
RTVSPropertyOp46
 70
     1
102
RTVSPropertyOp47
 70
     1
102
RTVSPropertyOp48
 70
     1
102
RTVSPropertyOp49
 70
     1
102
RTVSPropertyOp50
 70
     1
102
RTVSPropertyOp51
 70
     0
102
RTVSPropertyOp52
 70
     0
102
RTVSPropertyOp53
 70
     1
102
RTVSPropertyOp54
 70
     1
102
RTVSPropertyOp55
 70
     1
102
RTVSPropertyOp56
 70
     1
102
RTVSPropertyOp57
 70
     1
102
RTVSPropertyOp58
 70
     1
102
RTVSPropertyOp59
 70
     1
102
RTVSPropertyOp60
 70
     1
102
RTVSPropertyOp61
 70
     1
102
RTVSPropertyOp62
 70
     1
  0
XRECORD
  5
7BE
102
{ACAD_REACTORS
330
7BD
102
}
330
7BD
100
AcDbXrecord
280
     1
102
RTVSPost2010Prop28
280
     0
102
RTVSPost2010PropOp28
 70
     1
102
RTVSPost2010Prop29
280
     1
102
RTVSPost2010PropOp29
 70
     1
102
RTVSPost2010Prop30
280
     1
102
RTVSPost2010PropOp30
 70
     1
102
RTVSPost2010Prop31
280
     0
102
RTVSPost2010PropOp31
 70
     1
102
RTVSPost2010Prop32
280
     0
102
RTVSPost2010PropOp32
 70
     1
102
RTVSPost2010Prop33
280
     0
102
RTVSPost2010PropOp33
 70
     1
102
RTVSPost2010Prop34
280
     0
102
RTVSPost2010PropOp34
 70
     1
102
RTVSPost2010Prop35
280
     0
102
RTVSPost2010PropOp35
 70
     1
102
RTVSPost2010Prop36
280
     0
102
RTVSPost2010PropOp36
 70
     1
102
RTVSPost2010Prop37
 90
       50
102
RTVSPost2010PropOp37
 70
     1
102
RTVSPost2010Prop38
140
0.0
102
RTVSPost2010PropOp38
 70
     1
102
RTVSPost2010Prop39
140
1.0
102
RTVSPost2010PropOp39
 70
     1
102
RTVSPost2010Prop40
 90
        0
102
RTVSPost2010PropOp40
 70
     1
102
RTVSPost2010Prop41ColorIndex
 90
       18
102
RTVSPost2010Prop41ColorRGB
 90
        0
102
RTVSPost2010PropOp41
 70
     1
102
RTVSPost2010Prop42
 90
       50
102
RTVSPost2010PropOp42
 70
     1
102
RTVSPost2010Prop43
 90
        3
102
RTVSPost2010PropOp43
 70
     1
102
RTVSPost2010Prop44ColorIndex
 90
        5
102
RTVSPost2010Prop44ColorRGB
 90
      255
102
RTVSPost2010PropOp44
 70
     1
102
RTVSPost2010Prop45
280
     0
102
RTVSPost2010PropOp45
 70
     1
102
RTVSPost2010Prop46
 90
       50
102
RTVSPost2010PropOp46
 70
     1
102
RTVSPost2010Prop47
 90
       50
102
RTVSPost2010PropOp47
 70
     1
102
RTVSPost2010Prop48
 90
       50
102
RTVSPost2010PropOp48
 70
     1
102
RTVSPost2010Prop49
280
     0
102
RTVSPost2010PropOp49
 70
     1
102
RTVSPost2010Prop50
 90
       50
102
RTVSPost2010PropOp50
 70
     1
102
RTVSPost2010Prop51ColorIndex
 90
      256
102
RTVSPost2010Prop51ColorRGB
 90
-16777216
102
RTVSPost2010PropOp51
 70
     0
102
RTVSPost2010Prop52
140
1.0
102
RTVSPost2010PropOp52
 70
     0
102
RTVSPost2010Prop53
 90
        2
102
RTVSPost2010PropOp53
 70
     1
102
RTVSPost2010Prop54
  1
strokes_ogs.tif
102
RTVSPost2010PropOp54
 70
     1
102
RTVSPost2010Prop55
280
     0
102
RTVSPost2010PropOp55
 70
     1
102
RTVSPost2010Prop56
140
1.0
102
RTVSPost2010PropOp56
 70
     1
102
RTVSPost2010Prop57
140
1.0
102
RTVSPost2010PropOp57
 70
     1
102
RTVSPropertyOp0
 70
     0
102
RTVSPropertyOp1
 70
     0
102
RTVSPropertyOp2
 70
     0
102
RTVSPropertyOp3
 70
     0
102
RTVSPropertyOp4
 70
     0
102
RTVSPropertyOp5
 70
     0
102
RTVSPropertyOp6
 70
     0
102
RTVSPropertyOp7
 70
     0
102
RTVSPropertyOp8
 70
     0
102
RTVSPropertyOp9
 70
     0
102
RTVSPropertyOp10
 70
     0
102
RTVSPropertyOp11
 70
     0
102
RTVSPropertyOp12
 70
     0
102
RTVSPropertyOp13
 70
     0
102
RTVSPropertyOp14
 70
     2
102
RTVSPropertyOp15
 70
     0
102
RTVSPropertyOp16
 70
     0
102
RTVSPropertyOp17
 70
     0
102
RTVSPropertyOp18
 70
     0
102
RTVSPropertyOp19
 70
     0
102
RTVSPropertyOp20
 70
     0
102
RTVSPropertyOp21
 70
     0
102
RTVSPropertyOp22
 70
     0
102
RTVSPropertyOp23
 70
     0
102
RTVSPropertyOp24
 70
     0
102
RTVSPropertyOp25
 70
     0
102
RTVSPropertyOp26
 70
     0
102
RTVSPropertyOp27
 70
     0
102
RTVSPropertyOp28
 70
     1
102
RTVSPropertyOp29
 70
     1
102
RTVSPropertyOp30
 70
     1
102
RTVSPropertyOp31
 70
     1
102
RTVSPropertyOp32
 70
     1
102
RTVSPropertyOp33
 70
     1
102
RTVSPropertyOp34
 70
     1
102
RTVSPropertyOp35
 70
     1
102
RTVSPropertyOp36
 70
     1
102
RTVSPropertyOp37
 70
     1
102
RTVSPropertyOp38
 70
     1
102
RTVSPropertyOp39
 70
     1
102
RTVSPropertyOp40
 70
     1
102
RTVSPropertyOp41
 70
     1
102
RTVSPropertyOp42
 70
     1
102
RTVSPropertyOp43
 70
     1
102
RTVSPropertyOp44
 70
     1
102
RTVSPropertyOp45
 70
     1
102
RTVSPropertyOp46
 70
     1
102
RTVSPropertyOp47
 70
     1
102
RTVSPropertyOp48
 70
     1
102
RTVSPropertyOp49
 70
     1
102
RTVSPropertyOp50
 70
     1
102
RTVSPropertyOp51
 70
     0
102
RTVSPropertyOp52
 70
     0
102
RTVSPropertyOp53
 70
     1
102
RTVSPropertyOp54
 70
     1
102
RTVSPropertyOp55
 70
     1
102
RTVSPropertyOp56
 70
     1
102
RTVSPropertyOp57
 70
     1
102
RTVSPropertyOp58
 70
     1
102
RTVSPropertyOp59
 70
     1
102
RTVSPropertyOp60
 70
     1
102
RTVSPropertyOp61
 70
     1
102
RTVSPropertyOp62
 70
     1
  0
XRECORD
  5
7B8
102
{ACAD_REACTORS
330
7B7
102
}
330
7B7
100
AcDbXrecord
280
     1
102
RTVSPost2010Prop28
280
     0
102
RTVSPost2010PropOp28
 70
     1
102
RTVSPost2010Prop29
280
     1
102
RTVSPost2010PropOp29
 70
     1
102
RTVSPost2010Prop30
280
     1
102
RTVSPost2010PropOp30
 70
     1
102
RTVSPost2010Prop31
280
     0
102
RTVSPost2010PropOp31
 70
     1
102
RTVSPost2010Prop32
280
     0
102
RTVSPost2010PropOp32
 70
     1
102
RTVSPost2010Prop33
280
     0
102
RTVSPost2010PropOp33
 70
     1
102
RTVSPost2010Prop34
280
     0
102
RTVSPost2010PropOp34
 70
     1
102
RTVSPost2010Prop35
280
     0
102
RTVSPost2010PropOp35
 70
     1
102
RTVSPost2010Prop36
280
     0
102
RTVSPost2010PropOp36
 70
     1
102
RTVSPost2010Prop37
 90
       50
102
RTVSPost2010PropOp37
 70
     1
102
RTVSPost2010Prop38
140
0.0
102
RTVSPost2010PropOp38
 70
     1
102
RTVSPost2010Prop39
140
1.0
102
RTVSPost2010PropOp39
 70
     1
102
RTVSPost2010Prop40
 90
        0
102
RTVSPost2010PropOp40
 70
     1
102
RTVSPost2010Prop41ColorIndex
 90
       18
102
RTVSPost2010Prop41ColorRGB
 90
        0
102
RTVSPost2010PropOp41
 70
     1
102
RTVSPost2010Prop42
 90
       50
102
RTVSPost2010PropOp42
 70
     1
102
RTVSPost2010Prop43
 90
        3
102
RTVSPost2010PropOp43
 70
     1
102
RTVSPost2010Prop44ColorIndex
 90
        5
102
RTVSPost2010Prop44ColorRGB
 90
      255
102
RTVSPost2010PropOp44
 70
     1
102
RTVSPost2010Prop45
280
     0
102
RTVSPost2010PropOp45
 70
     1
102
RTVSPost2010Prop46
 90
       50
102
RTVSPost2010PropOp46
 70
     1
102
RTVSPost2010Prop47
 90
       50
102
RTVSPost2010PropOp47
 70
     1
102
RTVSPost2010Prop48
 90
       50
102
RTVSPost2010PropOp48
 70
     1
102
RTVSPost2010Prop49
280
     0
102
RTVSPost2010PropOp49
 70
     1
102
RTVSPost2010Prop50
 90
       50
102
RTVSPost2010PropOp50
 70
     1
102
RTVSPost2010Prop51ColorIndex
 90
      256
102
RTVSPost2010Prop51ColorRGB
 90
-16777216
102
RTVSPost2010PropOp51
 70
     0
102
RTVSPost2010Prop52
140
1.0
102
RTVSPost2010PropOp52
 70
     0
102
RTVSPost2010Prop53
 90
        2
102
RTVSPost2010PropOp53
 70
     1
102
RTVSPost2010Prop54
  1
strokes_ogs.tif
102
RTVSPost2010PropOp54
 70
     1
102
RTVSPost2010Prop55
280
     0
102
RTVSPost2010PropOp55
 70
     1
102
RTVSPost2010Prop56
140
1.0
102
RTVSPost2010PropOp56
 70
     1
102
RTVSPost2010Prop57
140
1.0
102
RTVSPost2010PropOp57
 70
     1
102
RTVSPropertyOp0
 70
     1
102
RTVSPropertyOp1
 70
     1
102
RTVSPropertyOp2
 70
     1
102
RTVSPropertyOp3
 70
     1
102
RTVSPropertyOp4
 70
     1
102
RTVSPropertyOp5
 70
     1
102
RTVSPropertyOp6
 70
     1
102
RTVSPropertyOp7
 70
     1
102
RTVSPropertyOp8
 70
     1
102
RTVSPropertyOp9
 70
     1
102
RTVSPropertyOp10
 70
     1
102
RTVSPropertyOp11
 70
     1
102
RTVSPropertyOp12
 70
     1
102
RTVSPropertyOp13
 70
     1
102
RTVSPropertyOp14
 70
     1
102
RTVSPropertyOp15
 70
     1
102
RTVSPropertyOp16
 70
     1
102
RTVSPropertyOp17
 70
     1
102
RTVSPropertyOp18
 70
     1
102
RTVSPropertyOp19
 70
     1
102
RTVSPropertyOp20
 70
     1
102
RTVSPropertyOp21
 70
     1
102
RTVSPropertyOp22
 70
     1
102
RTVSPropertyOp23
 70
     1
102
RTVSPropertyOp24
 70
     1
102
RTVSPropertyOp25
 70
     1
102
RTVSPropertyOp26
 70
     1
102
RTVSPropertyOp27
 70
     1
102
RTVSPropertyOp28
 70
     1
102
RTVSPropertyOp29
 70
     1
102
RTVSPropertyOp30
 70
     1
102
RTVSPropertyOp31
 70
     1
102
RTVSPropertyOp32
 70
     1
102
RTVSPropertyOp33
 70
     1
102
RTVSPropertyOp34
 70
     1
102
RTVSPropertyOp35
 70
     1
102
RTVSPropertyOp36
 70
     1
102
RTVSPropertyOp37
 70
     1
102
RTVSPropertyOp38
 70
     1
102
RTVSPropertyOp39
 70
     1
102
RTVSPropertyOp40
 70
     1
102
RTVSPropertyOp41
 70
     1
102
RTVSPropertyOp42
 70
     1
102
RTVSPropertyOp43
 70
     1
102
RTVSPropertyOp44
 70
     1
102
RTVSPropertyOp45
 70
     1
102
RTVSPropertyOp46
 70
     1
102
RTVSPropertyOp47
 70
     1
102
RTVSPropertyOp48
 70
     1
102
RTVSPropertyOp49
 70
     1
102
RTVSPropertyOp50
 70
     1
102
RTVSPropertyOp51
 70
     0
102
RTVSPropertyOp52
 70
     0
102
RTVSPropertyOp53
 70
     1
102
RTVSPropertyOp54
 70
     1
102
RTVSPropertyOp55
 70
     1
102
RTVSPropertyOp56
 70
     1
102
RTVSPropertyOp57
 70
     1
102
RTVSPropertyOp58
 70
     1
102
RTVSPropertyOp59
 70
     1
102
RTVSPropertyOp60
 70
     1
102
RTVSPropertyOp61
 70
     1
102
RTVSPropertyOp62
 70
     1
  0
XRECORD
  5
7C0
102
{ACAD_REACTORS
330
7BF
102
}
330
7BF
100
AcDbXrecord
280
     1
102
RTVSPost2010Prop28
280
     0
102
RTVSPost2010PropOp28
 70
     1
102
RTVSPost2010Prop29
280
     1
102
RTVSPost2010PropOp29
 70
     1
102
RTVSPost2010Prop30
280
     1
102
RTVSPost2010PropOp30
 70
     1
102
RTVSPost2010Prop31
280
     0
102
RTVSPost2010PropOp31
 70
     1
102
RTVSPost2010Prop32
280
     0
102
RTVSPost2010PropOp32
 70
     1
102
RTVSPost2010Prop33
280
     0
102
RTVSPost2010PropOp33
 70
     1
102
RTVSPost2010Prop34
280
     0
102
RTVSPost2010PropOp34
 70
     1
102
RTVSPost2010Prop35
280
     0
102
RTVSPost2010PropOp35
 70
     1
102
RTVSPost2010Prop36
280
     0
102
RTVSPost2010PropOp36
 70
     1
102
RTVSPost2010Prop37
 90
       50
102
RTVSPost2010PropOp37
 70
     1
102
RTVSPost2010Prop38
140
0.0
102
RTVSPost2010PropOp38
 70
     1
102
RTVSPost2010Prop39
140
1.0
102
RTVSPost2010PropOp39
 70
     1
102
RTVSPost2010Prop40
 90
        0
102
RTVSPost2010PropOp40
 70
     1
102
RTVSPost2010Prop41ColorIndex
 90
       18
102
RTVSPost2010Prop41ColorRGB
 90
        0
102
RTVSPost2010PropOp41
 70
     1
102
RTVSPost2010Prop42
 90
       50
102
RTVSPost2010PropOp42
 70
     1
102
RTVSPost2010Prop43
 90
        3
102
RTVSPost2010PropOp43
 70
     1
102
RTVSPost2010Prop44ColorIndex
 90
        5
102
RTVSPost2010Prop44ColorRGB
 90
      255
102
RTVSPost2010PropOp44
 70
     1
102
RTVSPost2010Prop45
280
     0
102
RTVSPost2010PropOp45
 70
     1
102
RTVSPost2010Prop46
 90
       50
102
RTVSPost2010PropOp46
 70
     1
102
RTVSPost2010Prop47
 90
       50
102
RTVSPost2010PropOp47
 70
     1
102
RTVSPost2010Prop48
 90
       50
102
RTVSPost2010PropOp48
 70
     1
102
RTVSPost2010Prop49
280
     0
102
RTVSPost2010PropOp49
 70
     1
102
RTVSPost2010Prop50
 90
       50
102
RTVSPost2010PropOp50
 70
     1
102
RTVSPost2010Prop51ColorIndex
 90
      256
102
RTVSPost2010Prop51ColorRGB
 90
-16777216
102
RTVSPost2010PropOp51
 70
     0
102
RTVSPost2010Prop52
140
1.0
102
RTVSPost2010PropOp52
 70
     0
102
RTVSPost2010Prop53
 90
        2
102
RTVSPost2010PropOp53
 70
     1
102
RTVSPost2010Prop54
  1
strokes_ogs.tif
102
RTVSPost2010PropOp54
 70
     1
102
RTVSPost2010Prop55
280
     0
102
RTVSPost2010PropOp55
 70
     1
102
RTVSPost2010Prop56
140
1.0
102
RTVSPost2010PropOp56
 70
     1
102
RTVSPost2010Prop57
140
1.0
102
RTVSPost2010PropOp57
 70
     1
102
RTVSPropertyOp0
 70
     0
102
RTVSPropertyOp1
 70
     0
102
RTVSPropertyOp2
 70
     0
102
RTVSPropertyOp3
 70
     0
102
RTVSPropertyOp4
 70
     0
102
RTVSPropertyOp5
 70
     0
102
RTVSPropertyOp6
 70
     0
102
RTVSPropertyOp7
 70
     0
102
RTVSPropertyOp8
 70
     0
102
RTVSPropertyOp9
 70
     0
102
RTVSPropertyOp10
 70
     0
102
RTVSPropertyOp11
 70
     0
102
RTVSPropertyOp12
 70
     0
102
RTVSPropertyOp13
 70
     0
102
RTVSPropertyOp14
 70
     2
102
RTVSPropertyOp15
 70
     0
102
RTVSPropertyOp16
 70
     0
102
RTVSPropertyOp17
 70
     0
102
RTVSPropertyOp18
 70
     0
102
RTVSPropertyOp19
 70
     0
102
RTVSPropertyOp20
 70
     0
102
RTVSPropertyOp21
 70
     0
102
RTVSPropertyOp22
 70
     0
102
RTVSPropertyOp23
 70
     0
102
RTVSPropertyOp24
 70
     0
102
RTVSPropertyOp25
 70
     0
102
RTVSPropertyOp26
 70
     0
102
RTVSPropertyOp27
 70
     0
102
RTVSPropertyOp28
 70
     1
102
RTVSPropertyOp29
 70
     1
102
RTVSPropertyOp30
 70
     1
102
RTVSPropertyOp31
 70
     1
102
RTVSPropertyOp32
 70
     1
102
RTVSPropertyOp33
 70
     1
102
RTVSPropertyOp34
 70
     1
102
RTVSPropertyOp35
 70
     1
102
RTVSPropertyOp36
 70
     1
102
RTVSPropertyOp37
 70
     1
102
RTVSPropertyOp38
 70
     1
102
RTVSPropertyOp39
 70
     1
102
RTVSPropertyOp40
 70
     1
102
RTVSPropertyOp41
 70
     1
102
RTVSPropertyOp42
 70
     1
102
RTVSPropertyOp43
 70
     1
102
RTVSPropertyOp44
 70
     1
102
RTVSPropertyOp45
 70
     1
102
RTVSPropertyOp46
 70
     1
102
RTVSPropertyOp47
 70
     1
102
RTVSPropertyOp48
 70
     1
102
RTVSPropertyOp49
 70
     1
102
RTVSPropertyOp50
 70
     1
102
RTVSPropertyOp51
 70
     0
102
RTVSPropertyOp52
 70
     0
102
RTVSPropertyOp53
 70
     1
102
RTVSPropertyOp54
 70
     1
102
RTVSPropertyOp55
 70
     1
102
RTVSPropertyOp56
 70
     1
102
RTVSPropertyOp57
 70
     1
102
RTVSPropertyOp58
 70
     1
102
RTVSPropertyOp59
 70
     1
102
RTVSPropertyOp60
 70
     1
102
RTVSPropertyOp61
 70
     1
102
RTVSPropertyOp62
 70
     1
  0
XRECORD
  5
7B0
102
{ACAD_REACTORS
330
7AF
102
}
330
7AF
100
AcDbXrecord
280
     1
102
RTVSPost2010Prop28
280
     0
102
RTVSPost2010PropOp28
 70
     1
102
RTVSPost2010Prop29
280
     1
102
RTVSPost2010PropOp29
 70
     1
102
RTVSPost2010Prop30
280
     1
102
RTVSPost2010PropOp30
 70
     1
102
RTVSPost2010Prop31
280
     0
102
RTVSPost2010PropOp31
 70
     1
102
RTVSPost2010Prop32
280
     0
102
RTVSPost2010PropOp32
 70
     1
102
RTVSPost2010Prop33
280
     0
102
RTVSPost2010PropOp33
 70
     1
102
RTVSPost2010Prop34
280
     0
102
RTVSPost2010PropOp34
 70
     1
102
RTVSPost2010Prop35
280
     0
102
RTVSPost2010PropOp35
 70
     1
102
RTVSPost2010Prop36
280
     0
102
RTVSPost2010PropOp36
 70
     1
102
RTVSPost2010Prop37
 90
       50
102
RTVSPost2010PropOp37
 70
     1
102
RTVSPost2010Prop38
140
0.0
102
RTVSPost2010PropOp38
 70
     1
102
RTVSPost2010Prop39
140
1.0
102
RTVSPost2010PropOp39
 70
     1
102
RTVSPost2010Prop40
 90
        0
102
RTVSPost2010PropOp40
 70
     1
102
RTVSPost2010Prop41ColorIndex
 90
       18
102
RTVSPost2010Prop41ColorRGB
 90
        0
102
RTVSPost2010PropOp41
 70
     1
102
RTVSPost2010Prop42
 90
       50
102
RTVSPost2010PropOp42
 70
     1
102
RTVSPost2010Prop43
 90
        3
102
RTVSPost2010PropOp43
 70
     1
102
RTVSPost2010Prop44ColorIndex
 90
        5
102
RTVSPost2010Prop44ColorRGB
 90
      255
102
RTVSPost2010PropOp44
 70
     1
102
RTVSPost2010Prop45
280
     0
102
RTVSPost2010PropOp45
 70
     1
102
RTVSPost2010Prop46
 90
       50
102
RTVSPost2010PropOp46
 70
     1
102
RTVSPost2010Prop47
 90
       50
102
RTVSPost2010PropOp47
 70
     1
102
RTVSPost2010Prop48
 90
       50
102
RTVSPost2010PropOp48
 70
     1
102
RTVSPost2010Prop49
280
     0
102
RTVSPost2010PropOp49
 70
     1
102
RTVSPost2010Prop50
 90
       50
102
RTVSPost2010PropOp50
 70
     1
102
RTVSPost2010Prop51ColorIndex
 90
      256
102
RTVSPost2010Prop51ColorRGB
 90
-16777216
102
RTVSPost2010PropOp51
 70
     0
102
RTVSPost2010Prop52
140
1.0
102
RTVSPost2010PropOp52
 70
     0
102
RTVSPost2010Prop53
 90
        2
102
RTVSPost2010PropOp53
 70
     1
102
RTVSPost2010Prop54
  1
strokes_ogs.tif
102
RTVSPost2010PropOp54
 70
     1
102
RTVSPost2010Prop55
280
     0
102
RTVSPost2010PropOp55
 70
     1
102
RTVSPost2010Prop56
140
1.0
102
RTVSPost2010PropOp56
 70
     1
102
RTVSPost2010Prop57
140
1.0
102
RTVSPost2010PropOp57
 70
     1
102
RTVSPropertyOp0
 70
     1
102
RTVSPropertyOp1
 70
     1
102
RTVSPropertyOp2
 70
     1
102
RTVSPropertyOp3
 70
     1
102
RTVSPropertyOp4
 70
     1
102
RTVSPropertyOp5
 70
     1
102
RTVSPropertyOp6
 70
     1
102
RTVSPropertyOp7
 70
     1
102
RTVSPropertyOp8
 70
     1
102
RTVSPropertyOp9
 70
     1
102
RTVSPropertyOp10
 70
     1
102
RTVSPropertyOp11
 70
     1
102
RTVSPropertyOp12
 70
     1
102
RTVSPropertyOp13
 70
     1
102
RTVSPropertyOp14
 70
     1
102
RTVSPropertyOp15
 70
     1
102
RTVSPropertyOp16
 70
     1
102
RTVSPropertyOp17
 70
     1
102
RTVSPropertyOp18
 70
     1
102
RTVSPropertyOp19
 70
     1
102
RTVSPropertyOp20
 70
     1
102
RTVSPropertyOp21
 70
     1
102
RTVSPropertyOp22
 70
     1
102
RTVSPropertyOp23
 70
     1
102
RTVSPropertyOp24
 70
     1
102
RTVSPropertyOp25
 70
     1
102
RTVSPropertyOp26
 70
     1
102
RTVSPropertyOp27
 70
     1
102
RTVSPropertyOp28
 70
     1
102
RTVSPropertyOp29
 70
     1
102
RTVSPropertyOp30
 70
     1
102
RTVSPropertyOp31
 70
     1
102
RTVSPropertyOp32
 70
     1
102
RTVSPropertyOp33
 70
     1
102
RTVSPropertyOp34
 70
     1
102
RTVSPropertyOp35
 70
     1
102
RTVSPropertyOp36
 70
     1
102
RTVSPropertyOp37
 70
     1
102
RTVSPropertyOp38
 70
     1
102
RTVSPropertyOp39
 70
     1
102
RTVSPropertyOp40
 70
     1
102
RTVSPropertyOp41
 70
     1
102
RTVSPropertyOp42
 70
     1
102
RTVSPropertyOp43
 70
     1
102
RTVSPropertyOp44
 70
     1
102
RTVSPropertyOp45
 70
     1
102
RTVSPropertyOp46
 70
     1
102
RTVSPropertyOp47
 70
     1
102
RTVSPropertyOp48
 70
     1
102
RTVSPropertyOp49
 70
     1
102
RTVSPropertyOp50
 70
     1
102
RTVSPropertyOp51
 70
     0
102
RTVSPropertyOp52
 70
     0
102
RTVSPropertyOp53
 70
     1
102
RTVSPropertyOp54
 70
     1
102
RTVSPropertyOp55
 70
     1
102
RTVSPropertyOp56
 70
     1
102
RTVSPropertyOp57
 70
     1
102
RTVSPropertyOp58
 70
     1
102
RTVSPropertyOp59
 70
     1
102
RTVSPropertyOp60
 70
     1
102
RTVSPropertyOp61
 70
     1
102
RTVSPropertyOp62
 70
     1
  0
XRECORD
  5
7CC
102
{ACAD_REACTORS
330
7CB
102
}
330
7CB
100
AcDbXrecord
280
     1
102
RTVSPost2010Prop28
280
     0
102
RTVSPost2010PropOp28
 70
     1
102
RTVSPost2010Prop29
280
     1
102
RTVSPost2010PropOp29
 70
     1
102
RTVSPost2010Prop30
280
     1
102
RTVSPost2010PropOp30
 70
     1
102
RTVSPost2010Prop31
280
     0
102
RTVSPost2010PropOp31
 70
     1
102
RTVSPost2010Prop32
280
     0
102
RTVSPost2010PropOp32
 70
     1
102
RTVSPost2010Prop33
280
     0
102
RTVSPost2010PropOp33
 70
     1
102
RTVSPost2010Prop34
280
     0
102
RTVSPost2010PropOp34
 70
     1
102
RTVSPost2010Prop35
280
     0
102
RTVSPost2010PropOp35
 70
     1
102
RTVSPost2010Prop36
280
     0
102
RTVSPost2010PropOp36
 70
     1
102
RTVSPost2010Prop37
 90
       50
102
RTVSPost2010PropOp37
 70
     1
102
RTVSPost2010Prop38
140
0.0
102
RTVSPost2010PropOp38
 70
     1
102
RTVSPost2010Prop39
140
1.0
102
RTVSPost2010PropOp39
 70
     1
102
RTVSPost2010Prop40
 90
        0
102
RTVSPost2010PropOp40
 70
     1
102
RTVSPost2010Prop41ColorIndex
 90
       18
102
RTVSPost2010Prop41ColorRGB
 90
        0
102
RTVSPost2010PropOp41
 70
     1
102
RTVSPost2010Prop42
 90
       50
102
RTVSPost2010PropOp42
 70
     1
102
RTVSPost2010Prop43
 90
        3
102
RTVSPost2010PropOp43
 70
     1
102
RTVSPost2010Prop44ColorIndex
 90
        5
102
RTVSPost2010Prop44ColorRGB
 90
      255
102
RTVSPost2010PropOp44
 70
     1
102
RTVSPost2010Prop45
280
     0
102
RTVSPost2010PropOp45
 70
     1
102
RTVSPost2010Prop46
 90
       50
102
RTVSPost2010PropOp46
 70
     1
102
RTVSPost2010Prop47
 90
       50
102
RTVSPost2010PropOp47
 70
     1
102
RTVSPost2010Prop48
 90
       50
102
RTVSPost2010PropOp48
 70
     1
102
RTVSPost2010Prop49
280
     0
102
RTVSPost2010PropOp49
 70
     1
102
RTVSPost2010Prop50
 90
       50
102
RTVSPost2010PropOp50
 70
     1
102
RTVSPost2010Prop51ColorIndex
 90
      256
102
RTVSPost2010Prop51ColorRGB
 90
-16777216
102
RTVSPost2010PropOp51
 70
     0
102
RTVSPost2010Prop52
140
1.0
102
RTVSPost2010PropOp52
 70
     0
102
RTVSPost2010Prop53
 90
        2
102
RTVSPost2010PropOp53
 70
     1
102
RTVSPost2010Prop54
  1
strokes_ogs.tif
102
RTVSPost2010PropOp54
 70
     1
102
RTVSPost2010Prop55
280
     0
102
RTVSPost2010PropOp55
 70
     1
102
RTVSPost2010Prop56
140
1.0
102
RTVSPost2010PropOp56
 70
     1
102
RTVSPost2010Prop57
140
1.0
102
RTVSPost2010PropOp57
 70
     1
102
RTVSPropertyOp0
 70
     1
102
RTVSPropertyOp1
 70
     1
102
RTVSPropertyOp2
 70
     1
102
RTVSPropertyOp3
 70
     1
102
RTVSPropertyOp4
 70
     1
102
RTVSPropertyOp5
 70
     1
102
RTVSPropertyOp6
 70
     1
102
RTVSPropertyOp7
 70
     1
102
RTVSPropertyOp8
 70
     1
102
RTVSPropertyOp9
 70
     1
102
RTVSPropertyOp10
 70
     1
102
RTVSPropertyOp11
 70
     1
102
RTVSPropertyOp12
 70
     1
102
RTVSPropertyOp13
 70
     1
102
RTVSPropertyOp14
 70
     1
102
RTVSPropertyOp15
 70
     1
102
RTVSPropertyOp16
 70
     1
102
RTVSPropertyOp17
 70
     1
102
RTVSPropertyOp18
 70
     1
102
RTVSPropertyOp19
 70
     1
102
RTVSPropertyOp20
 70
     1
102
RTVSPropertyOp21
 70
     1
102
RTVSPropertyOp22
 70
     1
102
RTVSPropertyOp23
 70
     1
102
RTVSPropertyOp24
 70
     1
102
RTVSPropertyOp25
 70
     1
102
RTVSPropertyOp26
 70
     1
102
RTVSPropertyOp27
 70
     1
102
RTVSPropertyOp28
 70
     1
102
RTVSPropertyOp29
 70
     1
102
RTVSPropertyOp30
 70
     1
102
RTVSPropertyOp31
 70
     1
102
RTVSPropertyOp32
 70
     1
102
RTVSPropertyOp33
 70
     1
102
RTVSPropertyOp34
 70
     1
102
RTVSPropertyOp35
 70
     1
102
RTVSPropertyOp36
 70
     1
102
RTVSPropertyOp37
 70
     1
102
RTVSPropertyOp38
 70
     1
102
RTVSPropertyOp39
 70
     1
102
RTVSPropertyOp40
 70
     1
102
RTVSPropertyOp41
 70
     1
102
RTVSPropertyOp42
 70
     1
102
RTVSPropertyOp43
 70
     1
102
RTVSPropertyOp44
 70
     1
102
RTVSPropertyOp45
 70
     1
102
RTVSPropertyOp46
 70
     1
102
RTVSPropertyOp47
 70
     1
102
RTVSPropertyOp48
 70
     1
102
RTVSPropertyOp49
 70
     1
102
RTVSPropertyOp50
 70
     1
102
RTVSPropertyOp51
 70
     0
102
RTVSPropertyOp52
 70
     0
102
RTVSPropertyOp53
 70
     1
102
RTVSPropertyOp54
 70
     1
102
RTVSPropertyOp55
 70
     1
102
RTVSPropertyOp56
 70
     1
102
RTVSPropertyOp57
 70
     1
102
RTVSPropertyOp58
 70
     1
102
RTVSPropertyOp59
 70
     1
102
RTVSPropertyOp60
 70
     1
102
RTVSPropertyOp61
 70
     1
102
RTVSPropertyOp62
 70
     1
  0
XRECORD
  5
7CA
102
{ACAD_REACTORS
330
7C9
102
}
330
7C9
100
AcDbXrecord
280
     1
102
RTVSPost2010Prop28
280
     0
102
RTVSPost2010PropOp28
 70
     1
102
RTVSPost2010Prop29
280
     1
102
RTVSPost2010PropOp29
 70
     1
102
RTVSPost2010Prop30
280
     1
102
RTVSPost2010PropOp30
 70
     1
102
RTVSPost2010Prop31
280
     0
102
RTVSPost2010PropOp31
 70
     1
102
RTVSPost2010Prop32
280
     0
102
RTVSPost2010PropOp32
 70
     1
102
RTVSPost2010Prop33
280
     0
102
RTVSPost2010PropOp33
 70
     1
102
RTVSPost2010Prop34
280
     0
102
RTVSPost2010PropOp34
 70
     1
102
RTVSPost2010Prop35
280
     0
102
RTVSPost2010PropOp35
 70
     1
102
RTVSPost2010Prop36
280
     0
102
RTVSPost2010PropOp36
 70
     1
102
RTVSPost2010Prop37
 90
       50
102
RTVSPost2010PropOp37
 70
     1
102
RTVSPost2010Prop38
140
0.0
102
RTVSPost2010PropOp38
 70
     1
102
RTVSPost2010Prop39
140
1.0
102
RTVSPost2010PropOp39
 70
     1
102
RTVSPost2010Prop40
 90
        0
102
RTVSPost2010PropOp40
 70
     1
102
RTVSPost2010Prop41ColorIndex
 90
       18
102
RTVSPost2010Prop41ColorRGB
 90
        0
102
RTVSPost2010PropOp41
 70
     1
102
RTVSPost2010Prop42
 90
       50
102
RTVSPost2010PropOp42
 70
     1
102
RTVSPost2010Prop43
 90
        3
102
RTVSPost2010PropOp43
 70
     1
102
RTVSPost2010Prop44ColorIndex
 90
        5
102
RTVSPost2010Prop44ColorRGB
 90
      255
102
RTVSPost2010PropOp44
 70
     1
102
RTVSPost2010Prop45
280
     0
102
RTVSPost2010PropOp45
 70
     1
102
RTVSPost2010Prop46
 90
       50
102
RTVSPost2010PropOp46
 70
     1
102
RTVSPost2010Prop47
 90
       50
102
RTVSPost2010PropOp47
 70
     1
102
RTVSPost2010Prop48
 90
       50
102
RTVSPost2010PropOp48
 70
     1
102
RTVSPost2010Prop49
280
     0
102
RTVSPost2010PropOp49
 70
     1
102
RTVSPost2010Prop50
 90
       50
102
RTVSPost2010PropOp50
 70
     1
102
RTVSPost2010Prop51ColorIndex
 90
      256
102
RTVSPost2010Prop51ColorRGB
 90
-16777216
102
RTVSPost2010PropOp51
 70
     0
102
RTVSPost2010Prop52
140
1.0
102
RTVSPost2010PropOp52
 70
     0
102
RTVSPost2010Prop53
 90
        2
102
RTVSPost2010PropOp53
 70
     1
102
RTVSPost2010Prop54
  1
strokes_ogs.tif
102
RTVSPost2010PropOp54
 70
     1
102
RTVSPost2010Prop55
280
     0
102
RTVSPost2010PropOp55
 70
     1
102
RTVSPost2010Prop56
140
1.0
102
RTVSPost2010PropOp56
 70
     1
102
RTVSPost2010Prop57
140
1.0
102
RTVSPost2010PropOp57
 70
     1
102
RTVSPropertyOp0
 70
     1
102
RTVSPropertyOp1
 70
     1
102
RTVSPropertyOp2
 70
     1
102
RTVSPropertyOp3
 70
     1
102
RTVSPropertyOp4
 70
     1
102
RTVSPropertyOp5
 70
     1
102
RTVSPropertyOp6
 70
     1
102
RTVSPropertyOp7
 70
     1
102
RTVSPropertyOp8
 70
     1
102
RTVSPropertyOp9
 70
     1
102
RTVSPropertyOp10
 70
     1
102
RTVSPropertyOp11
 70
     1
102
RTVSPropertyOp12
 70
     1
102
RTVSPropertyOp13
 70
     1
102
RTVSPropertyOp14
 70
     1
102
RTVSPropertyOp15
 70
     1
102
RTVSPropertyOp16
 70
     1
102
RTVSPropertyOp17
 70
     1
102
RTVSPropertyOp18
 70
     1
102
RTVSPropertyOp19
 70
     1
102
RTVSPropertyOp20
 70
     1
102
RTVSPropertyOp21
 70
     1
102
RTVSPropertyOp22
 70
     1
102
RTVSPropertyOp23
 70
     1
102
RTVSPropertyOp24
 70
     1
102
RTVSPropertyOp25
 70
     1
102
RTVSPropertyOp26
 70
     1
102
RTVSPropertyOp27
 70
     1
102
RTVSPropertyOp28
 70
     1
102
RTVSPropertyOp29
 70
     1
102
RTVSPropertyOp30
 70
     1
102
RTVSPropertyOp31
 70
     1
102
RTVSPropertyOp32
 70
     1
102
RTVSPropertyOp33
 70
     1
102
RTVSPropertyOp34
 70
     1
102
RTVSPropertyOp35
 70
     1
102
RTVSPropertyOp36
 70
     1
102
RTVSPropertyOp37
 70
     1
102
RTVSPropertyOp38
 70
     1
102
RTVSPropertyOp39
 70
     1
102
RTVSPropertyOp40
 70
     1
102
RTVSPropertyOp41
 70
     1
102
RTVSPropertyOp42
 70
     1
102
RTVSPropertyOp43
 70
     1
102
RTVSPropertyOp44
 70
     1
102
RTVSPropertyOp45
 70
     1
102
RTVSPropertyOp46
 70
     1
102
RTVSPropertyOp47
 70
     1
102
RTVSPropertyOp48
 70
     1
102
RTVSPropertyOp49
 70
     1
102
RTVSPropertyOp50
 70
     1
102
RTVSPropertyOp51
 70
     0
102
RTVSPropertyOp52
 70
     0
102
RTVSPropertyOp53
 70
     1
102
RTVSPropertyOp54
 70
     1
102
RTVSPropertyOp55
 70
     1
102
RTVSPropertyOp56
 70
     1
102
RTVSPropertyOp57
 70
     1
102
RTVSPropertyOp58
 70
     1
102
RTVSPropertyOp59
 70
     1
102
RTVSPropertyOp60
 70
     1
102
RTVSPropertyOp61
 70
     1
102
RTVSPropertyOp62
 70
     1
  0
XRECORD
  5
7C4
102
{ACAD_REACTORS
330
7C3
102
}
330
7C3
100
AcDbXrecord
280
     1
102
RTVSPost2010Prop28
280
     0
102
RTVSPost2010PropOp28
 70
     1
102
RTVSPost2010Prop29
280
     1
102
RTVSPost2010PropOp29
 70
     1
102
RTVSPost2010Prop30
280
     1
102
RTVSPost2010PropOp30
 70
     1
102
RTVSPost2010Prop31
280
     0
102
RTVSPost2010PropOp31
 70
     1
102
RTVSPost2010Prop32
280
     0
102
RTVSPost2010PropOp32
 70
     1
102
RTVSPost2010Prop33
280
     0
102
RTVSPost2010PropOp33
 70
     1
102
RTVSPost2010Prop34
280
     0
102
RTVSPost2010PropOp34
 70
     1
102
RTVSPost2010Prop35
280
     0
102
RTVSPost2010PropOp35
 70
     1
102
RTVSPost2010Prop36
280
     0
102
RTVSPost2010PropOp36
 70
     1
102
RTVSPost2010Prop37
 90
       50
102
RTVSPost2010PropOp37
 70
     1
102
RTVSPost2010Prop38
140
0.0
102
RTVSPost2010PropOp38
 70
     1
102
RTVSPost2010Prop39
140
1.0
102
RTVSPost2010PropOp39
 70
     1
102
RTVSPost2010Prop40
 90
        0
102
RTVSPost2010PropOp40
 70
     1
102
RTVSPost2010Prop41ColorIndex
 90
       18
102
RTVSPost2010Prop41ColorRGB
 90
        0
102
RTVSPost2010PropOp41
 70
     1
102
RTVSPost2010Prop42
 90
       50
102
RTVSPost2010PropOp42
 70
     1
102
RTVSPost2010Prop43
 90
        3
102
RTVSPost2010PropOp43
 70
     1
102
RTVSPost2010Prop44ColorIndex
 90
        5
102
RTVSPost2010Prop44ColorRGB
 90
      255
102
RTVSPost2010PropOp44
 70
     1
102
RTVSPost2010Prop45
280
     0
102
RTVSPost2010PropOp45
 70
     1
102
RTVSPost2010Prop46
 90
       50
102
RTVSPost2010PropOp46
 70
     1
102
RTVSPost2010Prop47
 90
       50
102
RTVSPost2010PropOp47
 70
     1
102
RTVSPost2010Prop48
 90
       50
102
RTVSPost2010PropOp48
 70
     1
102
RTVSPost2010Prop49
280
     0
102
RTVSPost2010PropOp49
 70
     1
102
RTVSPost2010Prop50
 90
       50
102
RTVSPost2010PropOp50
 70
     1
102
RTVSPost2010Prop51ColorIndex
 90
      256
102
RTVSPost2010Prop51ColorRGB
 90
-16777216
102
RTVSPost2010PropOp51
 70
     0
102
RTVSPost2010Prop52
140
1.0
102
RTVSPost2010PropOp52
 70
     0
102
RTVSPost2010Prop53
 90
        2
102
RTVSPost2010PropOp53
 70
     1
102
RTVSPost2010Prop54
  1
strokes_ogs.tif
102
RTVSPost2010PropOp54
 70
     1
102
RTVSPost2010Prop55
280
     0
102
RTVSPost2010PropOp55
 70
     1
102
RTVSPost2010Prop56
140
1.0
102
RTVSPost2010PropOp56
 70
     1
102
RTVSPost2010Prop57
140
1.0
102
RTVSPost2010PropOp57
 70
     1
102
RTVSPropertyOp0
 70
     1
102
RTVSPropertyOp1
 70
     1
102
RTVSPropertyOp2
 70
     1
102
RTVSPropertyOp3
 70
     1
102
RTVSPropertyOp4
 70
     1
102
RTVSPropertyOp5
 70
     1
102
RTVSPropertyOp6
 70
     1
102
RTVSPropertyOp7
 70
     1
102
RTVSPropertyOp8
 70
     1
102
RTVSPropertyOp9
 70
     1
102
RTVSPropertyOp10
 70
     1
102
RTVSPropertyOp11
 70
     1
102
RTVSPropertyOp12
 70
     1
102
RTVSPropertyOp13
 70
     1
102
RTVSPropertyOp14
 70
     1
102
RTVSPropertyOp15
 70
     1
102
RTVSPropertyOp16
 70
     1
102
RTVSPropertyOp17
 70
     1
102
RTVSPropertyOp18
 70
     1
102
RTVSPropertyOp19
 70
     1
102
RTVSPropertyOp20
 70
     1
102
RTVSPropertyOp21
 70
     1
102
RTVSPropertyOp22
 70
     1
102
RTVSPropertyOp23
 70
     1
102
RTVSPropertyOp24
 70
     1
102
RTVSPropertyOp25
 70
     1
102
RTVSPropertyOp26
 70
     1
102
RTVSPropertyOp27
 70
     1
102
RTVSPropertyOp28
 70
     1
102
RTVSPropertyOp29
 70
     1
102
RTVSPropertyOp30
 70
     1
102
RTVSPropertyOp31
 70
     1
102
RTVSPropertyOp32
 70
     1
102
RTVSPropertyOp33
 70
     1
102
RTVSPropertyOp34
 70
     1
102
RTVSPropertyOp35
 70
     1
102
RTVSPropertyOp36
 70
     1
102
RTVSPropertyOp37
 70
     1
102
RTVSPropertyOp38
 70
     1
102
RTVSPropertyOp39
 70
     1
102
RTVSPropertyOp40
 70
     1
102
RTVSPropertyOp41
 70
     1
102
RTVSPropertyOp42
 70
     1
102
RTVSPropertyOp43
 70
     1
102
RTVSPropertyOp44
 70
     1
102
RTVSPropertyOp45
 70
     1
102
RTVSPropertyOp46
 70
     1
102
RTVSPropertyOp47
 70
     1
102
RTVSPropertyOp48
 70
     1
102
RTVSPropertyOp49
 70
     1
102
RTVSPropertyOp50
 70
     1
102
RTVSPropertyOp51
 70
     0
102
RTVSPropertyOp52
 70
     0
102
RTVSPropertyOp53
 70
     1
102
RTVSPropertyOp54
 70
     1
102
RTVSPropertyOp55
 70
     1
102
RTVSPropertyOp56
 70
     1
102
RTVSPropertyOp57
 70
     1
102
RTVSPropertyOp58
 70
     1
102
RTVSPropertyOp59
 70
     1
102
RTVSPropertyOp60
 70
     1
102
RTVSPropertyOp61
 70
     1
102
RTVSPropertyOp62
 70
     1
  0
XRECORD
  5
7C6
102
{ACAD_REACTORS
330
7C5
102
}
330
7C5
100
AcDbXrecord
280
     1
102
RTVSPost2010Prop28
280
     0
102
RTVSPost2010PropOp28
 70
     1
102
RTVSPost2010Prop29
280
     1
102
RTVSPost2010PropOp29
 70
     1
102
RTVSPost2010Prop30
280
     1
102
RTVSPost2010PropOp30
 70
     1
102
RTVSPost2010Prop31
280
     0
102
RTVSPost2010PropOp31
 70
     1
102
RTVSPost2010Prop32
280
     0
102
RTVSPost2010PropOp32
 70
     1
102
RTVSPost2010Prop33
280
     0
102
RTVSPost2010PropOp33
 70
     1
102
RTVSPost2010Prop34
280
     0
102
RTVSPost2010PropOp34
 70
     1
102
RTVSPost2010Prop35
280
     0
102
RTVSPost2010PropOp35
 70
     1
102
RTVSPost2010Prop36
280
     0
102
RTVSPost2010PropOp36
 70
     1
102
RTVSPost2010Prop37
 90
       50
102
RTVSPost2010PropOp37
 70
     1
102
RTVSPost2010Prop38
140
0.0
102
RTVSPost2010PropOp38
 70
     1
102
RTVSPost2010Prop39
140
1.0
102
RTVSPost2010PropOp39
 70
     1
102
RTVSPost2010Prop40
 90
        0
102
RTVSPost2010PropOp40
 70
     1
102
RTVSPost2010Prop41ColorIndex
 90
       18
102
RTVSPost2010Prop41ColorRGB
 90
        0
102
RTVSPost2010PropOp41
 70
     1
102
RTVSPost2010Prop42
 90
       50
102
RTVSPost2010PropOp42
 70
     1
102
RTVSPost2010Prop43
 90
        3
102
RTVSPost2010PropOp43
 70
     1
102
RTVSPost2010Prop44ColorIndex
 90
        5
102
RTVSPost2010Prop44ColorRGB
 90
      255
102
RTVSPost2010PropOp44
 70
     1
102
RTVSPost2010Prop45
280
     0
102
RTVSPost2010PropOp45
 70
     1
102
RTVSPost2010Prop46
 90
       50
102
RTVSPost2010PropOp46
 70
     1
102
RTVSPost2010Prop47
 90
       50
102
RTVSPost2010PropOp47
 70
     1
102
RTVSPost2010Prop48
 90
       50
102
RTVSPost2010PropOp48
 70
     1
102
RTVSPost2010Prop49
280
     0
102
RTVSPost2010PropOp49
 70
     1
102
RTVSPost2010Prop50
 90
       50
102
RTVSPost2010PropOp50
 70
     1
102
RTVSPost2010Prop51ColorIndex
 90
      256
102
RTVSPost2010Prop51ColorRGB
 90
-16777216
102
RTVSPost2010PropOp51
 70
     0
102
RTVSPost2010Prop52
140
1.0
102
RTVSPost2010PropOp52
 70
     0
102
RTVSPost2010Prop53
 90
        2
102
RTVSPost2010PropOp53
 70
     1
102
RTVSPost2010Prop54
  1
strokes_ogs.tif
102
RTVSPost2010PropOp54
 70
     1
102
RTVSPost2010Prop55
280
     0
102
RTVSPost2010PropOp55
 70
     1
102
RTVSPost2010Prop56
140
1.0
102
RTVSPost2010PropOp56
 70
     1
102
RTVSPost2010Prop57
140
1.0
102
RTVSPost2010PropOp57
 70
     1
102
RTVSPropertyOp0
 70
     1
102
RTVSPropertyOp1
 70
     1
102
RTVSPropertyOp2
 70
     1
102
RTVSPropertyOp3
 70
     1
102
RTVSPropertyOp4
 70
     1
102
RTVSPropertyOp5
 70
     1
102
RTVSPropertyOp6
 70
     1
102
RTVSPropertyOp7
 70
     1
102
RTVSPropertyOp8
 70
     1
102
RTVSPropertyOp9
 70
     1
102
RTVSPropertyOp10
 70
     1
102
RTVSPropertyOp11
 70
     1
102
RTVSPropertyOp12
 70
     1
102
RTVSPropertyOp13
 70
     1
102
RTVSPropertyOp14
 70
     1
102
RTVSPropertyOp15
 70
     1
102
RTVSPropertyOp16
 70
     1
102
RTVSPropertyOp17
 70
     1
102
RTVSPropertyOp18
 70
     1
102
RTVSPropertyOp19
 70
     1
102
RTVSPropertyOp20
 70
     1
102
RTVSPropertyOp21
 70
     1
102
RTVSPropertyOp22
 70
     1
102
RTVSPropertyOp23
 70
     1
102
RTVSPropertyOp24
 70
     1
102
RTVSPropertyOp25
 70
     1
102
RTVSPropertyOp26
 70
     1
102
RTVSPropertyOp27
 70
     1
102
RTVSPropertyOp28
 70
     1
102
RTVSPropertyOp29
 70
     1
102
RTVSPropertyOp30
 70
     1
102
RTVSPropertyOp31
 70
     1
102
RTVSPropertyOp32
 70
     1
102
RTVSPropertyOp33
 70
     1
102
RTVSPropertyOp34
 70
     1
102
RTVSPropertyOp35
 70
     1
102
RTVSPropertyOp36
 70
     1
102
RTVSPropertyOp37
 70
     1
102
RTVSPropertyOp38
 70
     1
102
RTVSPropertyOp39
 70
     1
102
RTVSPropertyOp40
 70
     1
102
RTVSPropertyOp41
 70
     1
102
RTVSPropertyOp42
 70
     1
102
RTVSPropertyOp43
 70
     1
102
RTVSPropertyOp44
 70
     1
102
RTVSPropertyOp45
 70
     1
102
RTVSPropertyOp46
 70
     1
102
RTVSPropertyOp47
 70
     1
102
RTVSPropertyOp48
 70
     1
102
RTVSPropertyOp49
 70
     1
102
RTVSPropertyOp50
 70
     1
102
RTVSPropertyOp51
 70
     0
102
RTVSPropertyOp52
 70
     0
102
RTVSPropertyOp53
 70
     1
102
RTVSPropertyOp54
 70
     1
102
RTVSPropertyOp55
 70
     1
102
RTVSPropertyOp56
 70
     1
102
RTVSPropertyOp57
 70
     1
102
RTVSPropertyOp58
 70
     1
102
RTVSPropertyOp59
 70
     1
102
RTVSPropertyOp60
 70
     1
102
RTVSPropertyOp61
 70
     1
102
RTVSPropertyOp62
 70
     1
  0
XRECORD
  5
7B6
102
{ACAD_REACTORS
330
7B5
102
}
330
7B5
100
AcDbXrecord
280
     1
102
RTVSPost2010Prop28
280
     0
102
RTVSPost2010PropOp28
 70
     1
102
RTVSPost2010Prop29
280
     1
102
RTVSPost2010PropOp29
 70
     1
102
RTVSPost2010Prop30
280
     1
102
RTVSPost2010PropOp30
 70
     1
102
RTVSPost2010Prop31
280
     0
102
RTVSPost2010PropOp31
 70
     1
102
RTVSPost2010Prop32
280
     0
102
RTVSPost2010PropOp32
 70
     1
102
RTVSPost2010Prop33
280
     0
102
RTVSPost2010PropOp33
 70
     1
102
RTVSPost2010Prop34
280
     0
102
RTVSPost2010PropOp34
 70
     1
102
RTVSPost2010Prop35
280
     0
102
RTVSPost2010PropOp35
 70
     1
102
RTVSPost2010Prop36
280
     0
102
RTVSPost2010PropOp36
 70
     1
102
RTVSPost2010Prop37
 90
       50
102
RTVSPost2010PropOp37
 70
     1
102
RTVSPost2010Prop38
140
0.0
102
RTVSPost2010PropOp38
 70
     1
102
RTVSPost2010Prop39
140
1.0
102
RTVSPost2010PropOp39
 70
     1
102
RTVSPost2010Prop40
 90
        0
102
RTVSPost2010PropOp40
 70
     1
102
RTVSPost2010Prop41ColorIndex
 90
       18
102
RTVSPost2010Prop41ColorRGB
 90
        0
102
RTVSPost2010PropOp41
 70
     1
102
RTVSPost2010Prop42
 90
       50
102
RTVSPost2010PropOp42
 70
     1
102
RTVSPost2010Prop43
 90
        3
102
RTVSPost2010PropOp43
 70
     1
102
RTVSPost2010Prop44ColorIndex
 90
        5
102
RTVSPost2010Prop44ColorRGB
 90
      255
102
RTVSPost2010PropOp44
 70
     1
102
RTVSPost2010Prop45
280
     0
102
RTVSPost2010PropOp45
 70
     1
102
RTVSPost2010Prop46
 90
       50
102
RTVSPost2010PropOp46
 70
     1
102
RTVSPost2010Prop47
 90
       50
102
RTVSPost2010PropOp47
 70
     1
102
RTVSPost2010Prop48
 90
       50
102
RTVSPost2010PropOp48
 70
     1
102
RTVSPost2010Prop49
280
     0
102
RTVSPost2010PropOp49
 70
     1
102
RTVSPost2010Prop50
 90
       50
102
RTVSPost2010PropOp50
 70
     1
102
RTVSPost2010Prop51ColorIndex
 90
      256
102
RTVSPost2010Prop51ColorRGB
 90
-16777216
102
RTVSPost2010PropOp51
 70
     0
102
RTVSPost2010Prop52
140
1.0
102
RTVSPost2010PropOp52
 70
     0
102
RTVSPost2010Prop53
 90
        2
102
RTVSPost2010PropOp53
 70
     1
102
RTVSPost2010Prop54
  1
strokes_ogs.tif
102
RTVSPost2010PropOp54
 70
     1
102
RTVSPost2010Prop55
280
     0
102
RTVSPost2010PropOp55
 70
     1
102
RTVSPost2010Prop56
140
1.0
102
RTVSPost2010PropOp56
 70
     1
102
RTVSPost2010Prop57
140
1.0
102
RTVSPost2010PropOp57
 70
     1
102
RTVSPropertyOp0
 70
     1
102
RTVSPropertyOp1
 70
     1
102
RTVSPropertyOp2
 70
     1
102
RTVSPropertyOp3
 70
     1
102
RTVSPropertyOp4
 70
     1
102
RTVSPropertyOp5
 70
     1
102
RTVSPropertyOp6
 70
     1
102
RTVSPropertyOp7
 70
     1
102
RTVSPropertyOp8
 70
     1
102
RTVSPropertyOp9
 70
     1
102
RTVSPropertyOp10
 70
     1
102
RTVSPropertyOp11
 70
     1
102
RTVSPropertyOp12
 70
     1
102
RTVSPropertyOp13
 70
     1
102
RTVSPropertyOp14
 70
     1
102
RTVSPropertyOp15
 70
     1
102
RTVSPropertyOp16
 70
     1
102
RTVSPropertyOp17
 70
     1
102
RTVSPropertyOp18
 70
     1
102
RTVSPropertyOp19
 70
     1
102
RTVSPropertyOp20
 70
     1
102
RTVSPropertyOp21
 70
     1
102
RTVSPropertyOp22
 70
     1
102
RTVSPropertyOp23
 70
     1
102
RTVSPropertyOp24
 70
     1
102
RTVSPropertyOp25
 70
     1
102
RTVSPropertyOp26
 70
     1
102
RTVSPropertyOp27
 70
     1
102
RTVSPropertyOp28
 70
     1
102
RTVSPropertyOp29
 70
     1
102
RTVSPropertyOp30
 70
     1
102
RTVSPropertyOp31
 70
     1
102
RTVSPropertyOp32
 70
     1
102
RTVSPropertyOp33
 70
     1
102
RTVSPropertyOp34
 70
     1
102
RTVSPropertyOp35
 70
     1
102
RTVSPropertyOp36
 70
     1
102
RTVSPropertyOp37
 70
     1
102
RTVSPropertyOp38
 70
     1
102
RTVSPropertyOp39
 70
     1
102
RTVSPropertyOp40
 70
     1
102
RTVSPropertyOp41
 70
     1
102
RTVSPropertyOp42
 70
     1
102
RTVSPropertyOp43
 70
     1
102
RTVSPropertyOp44
 70
     1
102
RTVSPropertyOp45
 70
     1
102
RTVSPropertyOp46
 70
     1
102
RTVSPropertyOp47
 70
     1
102
RTVSPropertyOp48
 70
     1
102
RTVSPropertyOp49
 70
     1
102
RTVSPropertyOp50
 70
     1
102
RTVSPropertyOp51
 70
     0
102
RTVSPropertyOp52
 70
     0
102
RTVSPropertyOp53
 70
     1
102
RTVSPropertyOp54
 70
     1
102
RTVSPropertyOp55
 70
     1
102
RTVSPropertyOp56
 70
     1
102
RTVSPropertyOp57
 70
     1
102
RTVSPropertyOp58
 70
     1
102
RTVSPropertyOp59
 70
     1
102
RTVSPropertyOp60
 70
     1
102
RTVSPropertyOp61
 70
     1
102
RTVSPropertyOp62
 70
     1
  0
XRECORD
  5
7AA
102
{ACAD_REACTORS
330
7A9
102
}
330
7A9
100
AcDbXrecord
280
     1
102
RTVSPost2010Prop28
280
     0
102
RTVSPost2010PropOp28
 70
     1
102
RTVSPost2010Prop29
280
     1
102
RTVSPost2010PropOp29
 70
     1
102
RTVSPost2010Prop30
280
     1
102
RTVSPost2010PropOp30
 70
     1
102
RTVSPost2010Prop31
280
     0
102
RTVSPost2010PropOp31
 70
     1
102
RTVSPost2010Prop32
280
     0
102
RTVSPost2010PropOp32
 70
     1
102
RTVSPost2010Prop33
280
     0
102
RTVSPost2010PropOp33
 70
     1
102
RTVSPost2010Prop34
280
     0
102
RTVSPost2010PropOp34
 70
     1
102
RTVSPost2010Prop35
280
     0
102
RTVSPost2010PropOp35
 70
     1
102
RTVSPost2010Prop36
280
     0
102
RTVSPost2010PropOp36
 70
     1
102
RTVSPost2010Prop37
 90
       50
102
RTVSPost2010PropOp37
 70
     1
102
RTVSPost2010Prop38
140
0.0
102
RTVSPost2010PropOp38
 70
     1
102
RTVSPost2010Prop39
140
1.0
102
RTVSPost2010PropOp39
 70
     1
102
RTVSPost2010Prop40
 90
        0
102
RTVSPost2010PropOp40
 70
     1
102
RTVSPost2010Prop41ColorIndex
 90
       18
102
RTVSPost2010Prop41ColorRGB
 90
        0
102
RTVSPost2010PropOp41
 70
     1
102
RTVSPost2010Prop42
 90
       50
102
RTVSPost2010PropOp42
 70
     1
102
RTVSPost2010Prop43
 90
        3
102
RTVSPost2010PropOp43
 70
     1
102
RTVSPost2010Prop44ColorIndex
 90
        5
102
RTVSPost2010Prop44ColorRGB
 90
      255
102
RTVSPost2010PropOp44
 70
     1
102
RTVSPost2010Prop45
280
     0
102
RTVSPost2010PropOp45
 70
     1
102
RTVSPost2010Prop46
 90
       50
102
RTVSPost2010PropOp46
 70
     1
102
RTVSPost2010Prop47
 90
       50
102
RTVSPost2010PropOp47
 70
     1
102
RTVSPost2010Prop48
 90
       50
102
RTVSPost2010PropOp48
 70
     1
102
RTVSPost2010Prop49
280
     0
102
RTVSPost2010PropOp49
 70
     1
102
RTVSPost2010Prop50
 90
       50
102
RTVSPost2010PropOp50
 70
     1
102
RTVSPost2010Prop51ColorIndex
 90
      256
102
RTVSPost2010Prop51ColorRGB
 90
-16777216
102
RTVSPost2010PropOp51
 70
     0
102
RTVSPost2010Prop52
140
1.0
102
RTVSPost2010PropOp52
 70
     0
102
RTVSPost2010Prop53
 90
        2
102
RTVSPost2010PropOp53
 70
     1
102
RTVSPost2010Prop54
  1
strokes_ogs.tif
102
RTVSPost2010PropOp54
 70
     1
102
RTVSPost2010Prop55
280
     0
102
RTVSPost2010PropOp55
 70
     1
102
RTVSPost2010Prop56
140
1.0
102
RTVSPost2010PropOp56
 70
     1
102
RTVSPost2010Prop57
140
1.0
102
RTVSPost2010PropOp57
 70
     1
102
RTVSPropertyOp0
 70
     1
102
RTVSPropertyOp1
 70
     1
102
RTVSPropertyOp2
 70
     1
102
RTVSPropertyOp3
 70
     1
102
RTVSPropertyOp4
 70
     1
102
RTVSPropertyOp5
 70
     1
102
RTVSPropertyOp6
 70
     1
102
RTVSPropertyOp7
 70
     1
102
RTVSPropertyOp8
 70
     1
102
RTVSPropertyOp9
 70
     1
102
RTVSPropertyOp10
 70
     1
102
RTVSPropertyOp11
 70
     1
102
RTVSPropertyOp12
 70
     1
102
RTVSPropertyOp13
 70
     1
102
RTVSPropertyOp14
 70
     1
102
RTVSPropertyOp15
 70
     1
102
RTVSPropertyOp16
 70
     1
102
RTVSPropertyOp17
 70
     1
102
RTVSPropertyOp18
 70
     1
102
RTVSPropertyOp19
 70
     1
102
RTVSPropertyOp20
 70
     1
102
RTVSPropertyOp21
 70
     1
102
RTVSPropertyOp22
 70
     1
102
RTVSPropertyOp23
 70
     1
102
RTVSPropertyOp24
 70
     1
102
RTVSPropertyOp25
 70
     1
102
RTVSPropertyOp26
 70
     1
102
RTVSPropertyOp27
 70
     1
102
RTVSPropertyOp28
 70
     1
102
RTVSPropertyOp29
 70
     1
102
RTVSPropertyOp30
 70
     1
102
RTVSPropertyOp31
 70
     1
102
RTVSPropertyOp32
 70
     1
102
RTVSPropertyOp33
 70
     1
102
RTVSPropertyOp34
 70
     1
102
RTVSPropertyOp35
 70
     1
102
RTVSPropertyOp36
 70
     1
102
RTVSPropertyOp37
 70
     1
102
RTVSPropertyOp38
 70
     1
102
RTVSPropertyOp39
 70
     1
102
RTVSPropertyOp40
 70
     1
102
RTVSPropertyOp41
 70
     1
102
RTVSPropertyOp42
 70
     1
102
RTVSPropertyOp43
 70
     1
102
RTVSPropertyOp44
 70
     1
102
RTVSPropertyOp45
 70
     1
102
RTVSPropertyOp46
 70
     1
102
RTVSPropertyOp47
 70
     1
102
RTVSPropertyOp48
 70
     1
102
RTVSPropertyOp49
 70
     1
102
RTVSPropertyOp50
 70
     1
102
RTVSPropertyOp51
 70
     0
102
RTVSPropertyOp52
 70
     0
102
RTVSPropertyOp53
 70
     1
102
RTVSPropertyOp54
 70
     1
102
RTVSPropertyOp55
 70
     1
102
RTVSPropertyOp56
 70
     1
102
RTVSPropertyOp57
 70
     1
102
RTVSPropertyOp58
 70
     1
102
RTVSPropertyOp59
 70
     1
102
RTVSPropertyOp60
 70
     1
102
RTVSPropertyOp61
 70
     1
102
RTVSPropertyOp62
 70
     1
  0
XRECORD
  5
7C8
102
{ACAD_REACTORS
330
7C7
102
}
330
7C7
100
AcDbXrecord
280
     1
102
RTVSPost2010Prop28
280
     0
102
RTVSPost2010PropOp28
 70
     1
102
RTVSPost2010Prop29
280
     1
102
RTVSPost2010PropOp29
 70
     1
102
RTVSPost2010Prop30
280
     1
102
RTVSPost2010PropOp30
 70
     1
102
RTVSPost2010Prop31
280
     0
102
RTVSPost2010PropOp31
 70
     1
102
RTVSPost2010Prop32
280
     0
102
RTVSPost2010PropOp32
 70
     1
102
RTVSPost2010Prop33
280
     0
102
RTVSPost2010PropOp33
 70
     1
102
RTVSPost2010Prop34
280
     0
102
RTVSPost2010PropOp34
 70
     1
102
RTVSPost2010Prop35
280
     0
102
RTVSPost2010PropOp35
 70
     1
102
RTVSPost2010Prop36
280
     0
102
RTVSPost2010PropOp36
 70
     1
102
RTVSPost2010Prop37
 90
       50
102
RTVSPost2010PropOp37
 70
     1
102
RTVSPost2010Prop38
140
0.0
102
RTVSPost2010PropOp38
 70
     1
102
RTVSPost2010Prop39
140
1.0
102
RTVSPost2010PropOp39
 70
     1
102
RTVSPost2010Prop40
 90
        0
102
RTVSPost2010PropOp40
 70
     1
102
RTVSPost2010Prop41ColorIndex
 90
       18
102
RTVSPost2010Prop41ColorRGB
 90
        0
102
RTVSPost2010PropOp41
 70
     1
102
RTVSPost2010Prop42
 90
       50
102
RTVSPost2010PropOp42
 70
     1
102
RTVSPost2010Prop43
 90
        3
102
RTVSPost2010PropOp43
 70
     1
102
RTVSPost2010Prop44ColorIndex
 90
        5
102
RTVSPost2010Prop44ColorRGB
 90
      255
102
RTVSPost2010PropOp44
 70
     1
102
RTVSPost2010Prop45
280
     0
102
RTVSPost2010PropOp45
 70
     1
102
RTVSPost2010Prop46
 90
       50
102
RTVSPost2010PropOp46
 70
     1
102
RTVSPost2010Prop47
 90
       50
102
RTVSPost2010PropOp47
 70
     1
102
RTVSPost2010Prop48
 90
       50
102
RTVSPost2010PropOp48
 70
     1
102
RTVSPost2010Prop49
280
     0
102
RTVSPost2010PropOp49
 70
     1
102
RTVSPost2010Prop50
 90
       50
102
RTVSPost2010PropOp50
 70
     1
102
RTVSPost2010Prop51ColorIndex
 90
      256
102
RTVSPost2010Prop51ColorRGB
 90
-16777216
102
RTVSPost2010PropOp51
 70
     0
102
RTVSPost2010Prop52
140
1.0
102
RTVSPost2010PropOp52
 70
     0
102
RTVSPost2010Prop53
 90
        2
102
RTVSPost2010PropOp53
 70
     1
102
RTVSPost2010Prop54
  1
strokes_ogs.tif
102
RTVSPost2010PropOp54
 70
     1
102
RTVSPost2010Prop55
280
     0
102
RTVSPost2010PropOp55
 70
     1
102
RTVSPost2010Prop56
140
1.0
102
RTVSPost2010PropOp56
 70
     1
102
RTVSPost2010Prop57
140
1.0
102
RTVSPost2010PropOp57
 70
     1
102
RTVSPropertyOp0
 70
     1
102
RTVSPropertyOp1
 70
     1
102
RTVSPropertyOp2
 70
     1
102
RTVSPropertyOp3
 70
     1
102
RTVSPropertyOp4
 70
     1
102
RTVSPropertyOp5
 70
     1
102
RTVSPropertyOp6
 70
     1
102
RTVSPropertyOp7
 70
     1
102
RTVSPropertyOp8
 70
     1
102
RTVSPropertyOp9
 70
     1
102
RTVSPropertyOp10
 70
     1
102
RTVSPropertyOp11
 70
     1
102
RTVSPropertyOp12
 70
     1
102
RTVSPropertyOp13
 70
     1
102
RTVSPropertyOp14
 70
     1
102
RTVSPropertyOp15
 70
     1
102
RTVSPropertyOp16
 70
     1
102
RTVSPropertyOp17
 70
     1
102
RTVSPropertyOp18
 70
     1
102
RTVSPropertyOp19
 70
     1
102
RTVSPropertyOp20
 70
     1
102
RTVSPropertyOp21
 70
     1
102
RTVSPropertyOp22
 70
     1
102
RTVSPropertyOp23
 70
     1
102
RTVSPropertyOp24
 70
     1
102
RTVSPropertyOp25
 70
     1
102
RTVSPropertyOp26
 70
     1
102
RTVSPropertyOp27
 70
     1
102
RTVSPropertyOp28
 70
     1
102
RTVSPropertyOp29
 70
     1
102
RTVSPropertyOp30
 70
     1
102
RTVSPropertyOp31
 70
     1
102
RTVSPropertyOp32
 70
     1
102
RTVSPropertyOp33
 70
     1
102
RTVSPropertyOp34
 70
     1
102
RTVSPropertyOp35
 70
     1
102
RTVSPropertyOp36
 70
     1
102
RTVSPropertyOp37
 70
     1
102
RTVSPropertyOp38
 70
     1
102
RTVSPropertyOp39
 70
     1
102
RTVSPropertyOp40
 70
     1
102
RTVSPropertyOp41
 70
     1
102
RTVSPropertyOp42
 70
     1
102
RTVSPropertyOp43
 70
     1
102
RTVSPropertyOp44
 70
     1
102
RTVSPropertyOp45
 70
     1
102
RTVSPropertyOp46
 70
     1
102
RTVSPropertyOp47
 70
     1
102
RTVSPropertyOp48
 70
     1
102
RTVSPropertyOp49
 70
     1
102
RTVSPropertyOp50
 70
     1
102
RTVSPropertyOp51
 70
     0
102
RTVSPropertyOp52
 70
     0
102
RTVSPropertyOp53
 70
     1
102
RTVSPropertyOp54
 70
     1
102
RTVSPropertyOp55
 70
     1
102
RTVSPropertyOp56
 70
     1
102
RTVSPropertyOp57
 70
     1
102
RTVSPropertyOp58
 70
     1
102
RTVSPropertyOp59
 70
     1
102
RTVSPropertyOp60
 70
     1
102
RTVSPropertyOp61
 70
     1
102
RTVSPropertyOp62
 70
     1
  0
ENDSEC
  0
EOF
